Funeral For A Friend - Monsters Chords & Tabs

 

Monsters Chords & Tabs

Funeral For A Friend Chords & Tabs

Version: 2 Type: Tab 0 ratings
1 star 2 stars 3 stars 4 stars 5 stars
comments

Monsters Tab

   
SONG: Monsters
BAND: Funeral For A Friend
ALBUM: Hours
AWESOMENESS: 2400+

Here's Monsters. My good buddy Ian did the version that's already here, but my one is
complete and has all the lead parts.

Comments are encouraged and welcomed. emoluke@gmail.com

-------------
Kris Roberts:
-------------

Intro

eb|------|
Bb|-(15)-|
Gb|--14--| (Just lots of this chord, right through until
Db|---x--|  the verse riff starts. Add the 15th fret in,)
Ab|--12--|  listen to the song to get the rhythm).
Db|------|

Verse

eb|-------------------------------------------|
Bb|-------------------------------13-------15-| (Play this riff three times
Gb|-14-14--14-14--14-14-----14-------14-------|  and then the one below
Db|--x--x---x--x---x--x--12----12-------12----|  just once).
Ab|-12-12--12-12--12-12-----------------------|
Db|-------------------------------------------|
                          .    .

eb|-------------------------------------------|
Bb|-------------------------------------------|
Gb|-14-14--14-14--14-14--17-17-17-17-19-19-19-|
Db|--x--x---x--x---x--x---x--x--x--x--x--x--x-|
Ab|-12-12--12-12--12-12--15-15-15-15-17-17-17-|
Db|-------------------------------------------|

End Of First Verse

eb|---------------------------|
Bb|---------------------------|
Gb|-14-----17----19----14-----|
Db|--x------x-----x-----x-----|
Ab|-12-x16-15-x3-17-x3-12-x10-|
Db|---------------------------|

Chorus

eb|-------------------------------------------------|
Bb|-------------------------------------------------|
Gb|-10-10-10-14-14-14-14-14-14-14-14-14-14-10-10-10-|
Db|--x--x--x--x--x--x--x--x--x--x--x--x--x--x--x--x-|
Ab|--8--8--8-12-12-12-12-12-12-12-12-12-12--8--8--8-|
Db|-------------------------------------------------|
[ Tab from: http://www.guitartabs.cc/tabs/f/funeral_for_a_friend/monsters_tab_ver_2.html ]
eb|--------------------------------------------|
Bb|----10---------------10---------------10----|
Gb|----------10-12-9----------10-12-9----------|
Db|-12----12---------12----12---------12----12-|
Ab|--------------------------------------------|
Db|--------------------------------------------|


Bridge

eb|----------------------------------------------------|
Bb|----------------------------------------------------|
Gb|----------------------------------------------------|
Db|-5-x9------5-x9-7-x4------5-x13------5-x9-7-x4------|
Ab|------8-x7-----------8-x3-------8-x3-----------8-x3-|
Db|----------------------------------------------------|

eb|---------------------------------|
Bb|---------------------------------| (Only play that last
Gb|-5-5-5-7-7-7---------------------|  5 on the last time
Db|-------------5-5-5-7-7-7-------5-|  through the riff).
Ab|-------------------------8-8-8---|
Db|---------------------------------|



-------------
Darran Smith:
-------------

Intro/End Of First Verse

eb|-----------------------------------------------------------|
Bb|-----------------------------------------------------------|
Gb|-----------------------------------------------------------|
Db|-8-8-8-5-5-5-7-7-7-3-3-3-5-5-2-2-3-3-3-5-5-5-2-2-2-3-3-3-0-|
Ab|-8-8-8-5-5-5-7-7-7-3-3-3-5-5-2-2-3-3-3-5-5-5-2-2-2-3-3-3-0-|
Db|-8-8-8-5-5-5-7-7-7-3-3-3-5-5-2-2-3-3-3-5-5-5-2-2-2-3-3-3-0-|

Verse

eb|-----------------------------------------------------------|
Bb|-----------------------------------------------------------|
Gb|-----------------------------------------------------------|
Db|-8-8-8-5-5-5-7-7-7-3-3-3-5-5-2-2-3-3-3-5-5-5-2-2-2-3-3-3-0-|
Ab|-8-8-8-5-5-5-7-7-7-3-3-3-5-5-2-2-3-3-3-5-5-5-2-2-2-3-3-3-0-|
Db|-8-8-8-5-5-5-7-7-7-3-3-3-5-5-2-2-3-3-3-5-5-5-2-2-2-3-3-3-0-|
    . . . . . . . . . . . . . . . . . . . . . . . . . . . .

Chorus

eb|------------------|
Bb|------------------|
Gb|------------------|
Db|-8-----12----7----|
Ab|-8-x16-12-x9-7-x7-|
Db|-8-----12----7----|
Comments