Funeral For A Friend - Monsters Chords & Tabs

 

Monsters Chords & Tabs

Funeral For A Friend Chords & Tabs

Version: 3 Type: Bass Tab

Monsters Bass Tab

#----------------------------------PLEASE NOTE---------------------------------#
#This file is the author's own work and represents their interpretation of the-#
#song. You may only use this file for private study, scholarship, or research.-#
#---------------This file was downloaded from www.taborama.com-----------------#
#---This tab was created using Tabber software from www.darkdayssoftware.com---#
#------------------------------------------------------------------------------#


Title: Monsters
Artist: Funeral For a Friend
Album: Hours

Instrument: 4 String Bass

Tabbed by:The Used Guy 664

Notes:
~ Hold


Intro
Gb|--------------------------------------||
Db|--------------------------------------||
Ab|--------------------------------------||x2
Db|--888-555-777-33-5-2-33-55-22-33-0000-||

Verse 1 Pt.1
Gb|-----------------------------------||
Db|-----------------------------------||
Ab|-----------------------------------||x4
Db|--888-555-777---555-33-22----------||

Verse 1 Pt.2
Gb|--------------------------------------||
Db|--------------------------------------||
Ab|--------------------------------------||x2
Db|--888-555-777-33-5-2-33-55-22-33-0000-||

Verse 1 pt.3
Gb|-----------------------------------||
Db|-----------------------------------||
Ab|-----------------------------------||x4
Db|--888-555-777---555-33-22----------||
[ Tab from: http://www.guitartabs.cc/tabs/f/funeral_for_a_friend/monsters_btab_ver_3.html ]
Chorus
Gb|--------------------------------||
Db|--------------------------------||
Ab|--------------------------------||x4
Db|---88888888888---9887777--------||

Verse 2 Pt.1
Gb|-----------------------------------||
Db|-----------------------------------||
Ab|-----------------------------------||x4
Db|--888-555-777---555-33-22----------||

Verse 2 Pt.2
Gb|--------------------------------------||
Db|--------------------------------------||
Ab|--------------------------------------||x2
Db|--888-555-777-33-5-2-33-55-22-33-0000-||

Chorus
Gb|--------------------------------||
Db|--------------------------------||
Ab|--------------------------------||x4
Db|---88888888888---9887777--------||

Bridge
Pt.1
Gb|--------------------------------||
Db|--------------------------------||
Ab|--------------------------------||x1
Db|---8~---5~---7~---3~------------||

Bridge Pt.2
Gb|-------------------------------------||
Db|-------------------------------------||
Ab|-------------------------------------||
Db|--8888888888--55555555--7777777---3~-||

Chorus
Gb|--------------------------------||
Db|--------------------------------||
Ab|--------------------------------||x4
Db|---88888888888---9887777--------||

Outro Pt.1
Gb|---------------------------------||
Db|---------------------------------||
Ab|---------------------------------||
Db|--888-555-777-33-5-2-33-55-22-33-||

Outro Pt.2
Gb|----------------------------------||
Db|----------------------------------||
Ab|----------------------------------||
Db|---8-5-7-3-5-2-33-55-22-33-0------||

Thats it i checked it over and it sounds good with the song with the right tuning and everything