Funeral For A Friend - Moments Forever Faded Chords & Tabs

 

Moments Forever Faded Chords & Tabs

Funeral For A Friend Chords & Tabs

Version: 5 Type: Tab

Moments Forever Faded Tab

   
Tuning - Standard

Song - Moments Forever Faded
Band - Funeral For A Friend
Album - Casually Depressed And Deep In Conversation

Moments forever faded (standard tuning)

Intro.
e|----------------|
B|----------------|
G|-66-66-66-66-66-|
D|-66-66-66-66-66-| X lots
A|-44-44-44-44-44-|
E|----------------|

This comes in with Gt. 2 and plays over that.
e|--------------|
B|--------------|
G|--------------|
D|-8~---6~---4~-|
A|-8~---6~---4~-|
E|-6~---4~---2~-|


Verse Gt. 1
e|--------------|-------------------------------------------|
B|--------------|-------------------------------------------|
G|---6~-5~------|---6-5------6-5------6-5------------5-6~---|
D|---------6~---|-------6-3~-----6-3~-----6-3~-----6--------|
A|--------------|------------------------------6-8----------|
E|--------------|-------------------------------------------|
[ Tab from: http://www.guitartabs.cc/tabs/f/funeral_for_a_friend/moments_forever_faded_tab_ver_5.html ]
Verse Gt. 2
e|--------------|---------------------------------------|
B|--------------|---------------------------------------|
G|--------------|---------------------------------------|
D|---8~---------|---6---44-44-44-44-44-44-44-44-44-44---|
A|---8~---------|---6---44-44-44-44-44-44-44-44-44-44---|
E|---6~---------|---4---22-22-22-22-22-22-22-22-22-22---|
			    .. .  .. .  .. .  .. .  .. .

Chorus Gt. 1+2
e|-------------------------------------|
B|-------------------------------------|
G|-------------------------------------|
D|---4-4-4-4-4-4-4-4-8-8-8-811111111---|
A|---4-4-4-4-4-4-4-4-8-8-8-811111111---|
E|---2-2-2-2-2-2-2-2-6-6-6-6-9-9-9-9---|

Outro Gt. 1 (listen for the strumming)
e|-----------------------|
B|-----------------------|
G|-----------------------|
D|---4----6----8---11----|
A|---4----6----8---11----|
E|---2----4----6----9----|

Outro Gt. 2 (listen for the strumming_
e|----------------------|
B|----------------------|
G|--------8---10--------|
D|---4----x----x---11---|
A|---4----6----8---11---|
E|---2--------------9---|

End on this
e|----|-----------|
B|----|-----------|
G|----|-----5-6---|
D|-4~-|---6-------|
A|-4~-|-----------|
E|-2~-|-----------|