Funeral For A Friend - Moments Forever Faded Chords & Tabs

 

Moments Forever Faded Chords & Tabs

Funeral For A Friend Chords & Tabs

Version: 4 Type: Tab 0 ratings
1 star 2 stars 3 stars 4 stars 5 stars
comments

Moments Forever Faded Tab

   
Moments Forever Faded
There are tabs for normal tuning, but FFaF pretty much always play in Eb then drop D

Tuning: Db, Ab, Db, Gb, Bb, eb

Intro

Guitar 1
eb|----------|
Bb|----------|
Gb|-7-7------|
Db|-7-7-x21--|  Not totally sure on amount, but sounds right
Ab|-5-5------|
Db|----------|

Then

Guitar 1 (carries on as usual)
eb|------|
Bb|------|
Gb|-7-7--|
Db|-7-7--|  Until Verse
Ab|-5-5--|
Db|------|

Guitar 2
eb|---------------|
Bb|---------------|
Gb|---------------|
Db|--9----7----5--|  Until Verse
Ab|--9----7----5--|
Db|--9----7----5--|


Verse

Guitar 1
eb|--------|----------|----------|----------|------------|
Bb|--------|----------|----------|----------|------------|
Gb|-7-6----|-7-6------|-7-6------|-7-6------|-------6-7--|
Db|-----7--|-----7----|-----7----|-----7----|-----7------|
Ab|--------|-------9--|-------9--|-------9--|-7-9--------|
Db|--------|----------|----------|----------|------------|

Guitar 2
eb|--------|----------|----------|----------|------------|
Bb|--------|----------|----------|----------|------------|
Gb|--------|----------|----------|----------|------------|
Db|--9~---7|-5-5-55-5-|-5-5-55-5-|-5-5-55-5-|-5-5-55-5-7-|
Ab|--9~---7|-5-5-55-5-|-5-5-55-5-|-5-5-55-5-|-5-5-55-5-7-|
Db|--9~---7|-5-5-55-5-|-5-5-55-5-|-5-5-55-5-|-5-5-55-5-7-|
[ Tab from: http://www.guitartabs.cc/tabs/f/funeral_for_a_friend/moments_forever_faded_tab_ver_4.html ]
Chorus
Guitar 1 & 2
eb|-----------------------------------|
Bb|-----------------------------------|
Gb|--------------------------5-5-5-5--|
Db|--5-5-5-5-5-5-5-5-9-9-9-9-5-5-5-5--|
Ab|--5-5-5-5-5-5-5-5-9-9-9-9-7-7-6-6--|
Eb|--5-5-5-5-5-5-5-5-9-9-9-9----------|

Bridge
Guitar 1
eb|--------------------------------------------------------|
Bb|--------------------------------------------------------|
Gb|--------------------------------------------------------|
Db|--9-9--9-9--9-9--9-9--9-9--9-9--9-9--9-9--9-9--9-9\7-7--|
Ab|--9-9--9-9--9-9--9-9--9-9--9-9--9-9--9-9--9-9--9-9\7-7--|
Db|--9-9--9-9--9-9--9-9--9-9--9-9--9-9--9-9--9-9--9-9\7-7--|

eb|--------------------------------------------------------|
Bb|--------------------------------------------------------|
Gb|--------------------------------------------------------|
Db|--5-5--5-5--5-5--5-5--5-5--5-5--5-5--5-5--5-5--5-5/7-7--|
Ab|--5-5--5-5--5-5--5-5--5-5--5-5--5-5--5-5--5-5--5-5/7-7--|
Db|--5-5--5-5--5-5--5-5--5-5--5-5--5-5--5-5--5-5--5-5/7-7--|

Repeat these 4 times

Then into chorus, with one guitar playing this behind it

eb|------------------------|
Bb|------------------------|
Gb|--7----9----14----7--6--|
Db|--7----9----14----7--6--|
Ab|--5----7----12----5--4--|
Db|------------------------|

And both guitars end on

eb|-----|
Bb|-----|
Gb|--7~-|
Db|--7~-|
Ab|--5~-|
Db|-----|

Tabbed by PeanutSandwich, email: markuswaltonus@hotmail.com
Comments