Funeral For A Friend - Kiss And Make Up Chords & Tabs

 

Kiss And Make Up Chords & Tabs

Funeral For A Friend Chords & Tabs

Version: 1 Type: Tab 0 ratings
1 star 2 stars 3 stars 4 stars 5 stars
comments

Kiss And Make Up Tab

Funeral For A Friend - Kiss And Make Up (All Bets Are Off)

Guitars: Kris Roberts and Darren Smith.

|----------------------------------|                    
|---13----10----8-----6----------|                   
|---X-----X-----X-----X---|  x2                
|---10----7-----5-----3----------|                     
|----------------------------------|                     
|----------------------------------|                     

Ends on the first note, then when it plays for the second time 

Guitar two plays this twice I believe



|--------------------------------------------------------------------------------|
|--------------------------------------------------------------------------------|
|--------------------------------------------------------------------------------|
|---8-------10---10-------7---7-----------------------------------------------|
|---8---------------------------------10---10-------8---8-------7--7--7------|
|---8---8-8----8----8-8-8---8---8-8-8----8----8-8-8---8---8--8--8--------|


|-------------------------------------------------------------------------------|
|-------------------------------------------------------------------------------|
|-------------------------------------------------------------------------------|
|---0-------10---10-------7---7----------------------------------------------|
|---0---------------------------------10---10-------8---8-------7--7--7-----|
|---0---0-0----0----0-0-0---0---0-0-0----0----0-0-0---0---0--0--0--------|


And before the verse starts both guitars play this
remember too let it ring

|------|
|------|
|---5--|
|---3--|
|---3--|
|---3--|




Verse!

Guitar 1:


|---------------------------------------------------------|
|---13-13---13-13-13---13-13-13---13/15-15-15---|
|---X--X----X--X--X----X--X--X----X--X--X--X-------|
|---10-10---10-10-10---10-10-10---10/12-12-12---|
|---------------------------------------------------------|
|---------------------------------------------------------|


|-------------------------------------------------------|
|---13-13---13-13---13-13---13-13---15-15-15---|
|---X--X----X--X----X--X----X--X----X--X--X------|
|---10-10---10-10---10-10---10-10---12-12-12---|
|-------------------------------------------------------|
|-------------------------------------------------------|


|-------------------------------------------------------|
|---13-13---13-13---13-13---13-13---15-15-15---|
|---X--X----X--X----X--X----X--X----X--X--X------|
|---10-10---10-10---10-10---10-10---12-12-12---|
|-------------------------------------------------------|
|-------------------------------------------------------|


|------------------------------------------------------|
|---13-13---13-13---13-13/15-15-15/17-17-17--|
|---X--X----X--X----X--X--X--X--X--X--X--X-----|
|---10-10---10-10---10-10/12-12-12/14-14-14--|
|------------------------------------------------------|
|------------------------------------------------------|


|---------------------------------------------------------|
|---13-13---13-13-13---13-13-13---13/15-15-15---|
|---X--X----X--X--X----X--X--X----X--X--X--X-------|
|---10-10---10-10-10---10-10-10---10/12-12-12---|
|---------------------------------------------------------|
|---------------------------------------------------------|


|-------------------------------------------------------|
|---13-13---13-13---13-13---13-13---15-15-15---|
|---X--X----X--X----X--X----X--X----X--X--X-------|
|---10-10---10-10---10-10---10-10---12-12-12---|
|-------------------------------------------------------|
|-------------------------------------------------------|

[ Tab from: http://www.guitartabs.cc/tabs/f/funeral_for_a_friend/kiss_and_make_up_tab.html ]
|--------------------------------------------------------|
|---13-13---13-13---13-13---13-13---15-15-15----|
|---X--X----X--X----X--X----X--X----X--X--X-------|
|---10-10---10-10---10-10---10-10---12-12-12----|
|-------------------------------------------------------|
|-------------------------------------------------------|


|------------------------------------------------------|
|---13-13---13-13---13-13/15-15-15/17-17-17--|
|---X--X----X--X----X--X--X--X--X--X--X--X------|
|---10-10---10-10---10-10/12-12-12/14-14-14--|
|------------------------------------------------------|
|------------------------------------------------------|



Guitar 2



|--------------------------------------------------------------------------|
|--------------------------------------------------------------------------|
|-------------------------------------------------------10-10--9--5/7---|
|---8-8--8-8-8--8-8-8--8/10-10-10---8-8--8-8--8--X--X---X--X-X--|
|---8-8--8-8-8--8-8-8--8/10-10-10---8-8--8-8--8--8--8---7--3/5---|
|---8-8--8-8-8--8-8-8--8/10-10-10---8-8--8-8--8--------------------|


|-----------------------------------------------------------------------------|
|-----------------------------------------------------------------------------|
|-----------------------------------------------------------------------------|
|---3-3-3--3-3--3-3/5-5-5--7-7-7---3-3-3--3-3--3-3/5-5-5--7-7-7-7--|
|---3-3-3--3-3--3-3/5-5-5--7-7-7---3-3-3--3-3--3-3/5-5-5--7-7-7-7--|
|---3-3-3--3-3--3-3/5-5-5--7-7-7---3-3-3--3-3--3-3/5-5-5--7-7-7-7--|


|-----------------------------------------------------------------------------|
|-----------------------------------------------------------------------------|
|-------------------------------------------------------10-10--9--5/7------|
|---8-8--8-8-8--8-8-8--8/10-10-10---8-8--8-8--8--X--X---X--X-X-----|
|---8-8--8-8-8--8-8-8--8/10-10-10---8-8--8-8--8--8--8---7--3/5------|
|---8-8--8-8-8--8-8-8--8/10-10-10---8-8--8-8--8-----------------------|


|-----------------------------------------------------------------------------|
|-----------------------------------------------------------------------------|
|----------------------------------------------------------5-5-5-5----------|
|---3-3-3--3-3--3-3/5-5-5--7-7-7---3-3-3--3-3--3---X-X-X-X----------|
|---3-3-3--3-3--3-3/5-5-5--7-7-7---3-3-3--3-3--3---3-3-3-3-----------|
|---3-3-3--3-3--3-3/5-5-5--7-7-7---3-3-3--3-3--3-----------------------|


Then chorus..

Okay so I might be wrong, but I believe that guitar two's intro part
is played here, while guitar one does something abit like this about four times I expect.

|----------------------------------|
|--12--13---15---17---18---20-|
|--x----x----x-----x----x----x--|
|--9---10---12---14---15---17-|
|---------------------------------|
|---------------------------------|

From here on I am stuck, any help with the "HEARTS" bit would be veeeryy helpful, but I regain my skill when;

Matt starts singing
"On the one thing you betted on"

You simply play this throughout!

Both guitars play both parts clean!!!

|-------------------------------------------------------------|
|-------------------------------------------------------------|
|---10-10-10-9--9--9--9--9--9--9--9--9--9--9--9--------|
|---10-10-10-10-10-10-10-10-10-10-10-10-10-10-10--|
|---8--8--8--8--8--8--8--8--8--8--8--8--8--8--8---------|
|-------------------------------------------------------------|

|-------------------------------------------------------------|
|-------------------------------------------------------------|
|-------------------------------------------------------------|
|---5-5-5-5-5-5--8-8-8-8-8-8--| Play this until the end, let ring
|---5-5-5-5-5-5--8-8-8-8-8-8-----------------------------|
|0- 5-5-5-5-5-5--8-8-8-8-8-8-----------------------------|
Comments