Funeral For A Friend - Juneau Chords & Tabs

 

Juneau Chords & Tabs

Funeral For A Friend Chords & Tabs

Version: 4 Type: Tab

Juneau Tab

the strumming is down up and after each bar of 8 a 1 bar rest
--------------------------------------------------------------|
----------------------------------------just for this bar-----|
--------------------------------------------------------------|
-15-(15-15-15-15-15-15-15-15)---------------------------------|
-13-(13-13-13-13-13-13-13-13)--x4-----------------------------|
-11-(11-11-11-11-11-11-11-11)---------------------------------|
[ Tab from: http://www.guitartabs.cc/tabs/f/funeral_for_a_friend/juneau_tab_ver_4.html ]
----------------------------------------------------------------------------|
---------the double space is to show the change of note---------------------|
--------------------------------------------------------------------------r-|
-16-16-16-16-16-16-16-16/16-16-16-16-16-16-16-16--16-16-16-16-16-16-16-16-e-|
-14-14-14-14-14-14-14-14/15-15-15-15-15-15-15-15--14-14-14-14-14-14-14-14-s-|
-12-12-12-12-12-12-12-12/12-12-12-12-12-12-12-12--12-12-12-12-12-12-12-12-t-|

----------------------------------|
----------------------------------|
----------------------------------|
-16-16-16------it's not perfect---|
-14-14-14------but it's close and-|
-12-12-12------easy to play-------|