Funeral For A Friend - Juneau Chords & Tabs

 

Juneau Chords & Tabs

Funeral For A Friend Chords & Tabs

Version: 1 Type: Tab 0 ratings
1 star 2 stars 3 stars 4 stars 5 stars
comments

Juneau Tab

   
Transcripted by Steve556
Copying this work and posting it on another site is illegal
If you wish to use this tab on another site please email me and wait
for a responce from me
snake280@hotmail.com

Funeral for a friend
Juneau 
Drop D



Intro - listen to figure out rhythm

----------------------------------------------------------------------------
----------------------------------------------------------------------------
-11..----11---11---9----8-----11/-------------------------------------------
--9..-----9----9---9----9-----9-/-------------------------------------------
--7..----/9---11---11---11----9-/-------------------------------------------
----------------------------------------------------------------------------

Verse/chorus
Guitar 1
----------------------------------------------------------------------------
----------------------------------------------------------------------------
--4-------------------------------------------------------------------------
--2----4/8------9-------8-------6-------------------------------------------
--2----4/6------6-------6-------9-------------------------------------------
--2----4/6-X8---6-X7----6-X7----6-X7----------------------------------------
Repeat till 00:47 then carry on till bridge

Guitar 2

----------------------------------------------------------------------------
----------------------------------------------------------------------------
--4----6/8........9........8--6--4------------------------------------------
--x----x-x--------x--------x--x--x------------------------------------------
--2----4/6........7........6--4--2------------------------------------------
----------------------------------------------------------------------------
Repeat till 00:29(below)

Guitar 2 (X1)
----------------------------------------------------------------------------
----------------------------------------------------------------------------
----8-11-8h9p8--------------------------------------------------------------
----------------11p9--------------------------------------------------------
----------------------------------------------------------------------------
----------------------------------------------------------------------------
repeat till 00:33

----------------------------------------------------------------------------
----------------------------------------------------------------------------
-----8----9-----8/6---------------------------------------------------------
-----x----x-----x-x--------------------------------------------------------
-----6----7-----6/4---------------------------------------------------------
----------------------------------------------------------------------------
Then (X1) again (repeat till 00:42)

----------------------------------------------------------------------------
----------------------------------------------------------------------------
-----8----9-8-6-4-6--4------------------------------------------------------
-----x----x-x-x-x-x--x------------------------------------------------------
-----6----7-6-4-2-4--2 let ring---------------------------------------------
----------------------------------------------------------------------------

----------------------------------------------------------------------------
----------------------------------------------------------------------------
-----------4--3-------------------------------------------------------------
-----4-4--------4-4---------------------------------------------------------
----------------------------------------------------------------------------
----------------------------------------------------------------------------
pm   - -                                                    repeat till 1:08



----------------------------------------------------------------------------
----------------------------------------------------------------------------
--4.......----8........9........8--6--4...----------------------------------
--x-----------x--------x--------x--x--x...----------------------------------
--2.......----6........7........6--4--2...----------------------------------
----------------------------------------------------------------------------
repeat till 1:26

then repeat (X1) till 01:31

----------------------------------------------------------------------------
----------------------------------------------------------------------------
-----8----9-----8/6---------------------------------------------------------
-----x----x-----x-x---------------------------------------------------------
-----6----7-----6/4---------------------------------------------------------
----------------------------------------------------------------------------

repeat (X1) till 01:40

----------------------------------------------------------------------------
----------------------------------------------------------------------------
-----8----9-8-6-4-6--4------------------------------------------------------
-----x----x-x-x-x-x--x-----------------------------------------------------
-----6----7-6-4-2-4--2 let ring---------------------------------------------
----------------------------------------------------------------------------

..and im nothin more than a line in your book....



Guitar 1
---------------14-------------14-------------------14-----------------------
---------12--------12--------------12--------12-----------------------------
--------------------------13--------------13--------------------------------
----------------------------------------------------------------------------
----------------------------------------------------------------------------
----------------------------------------------------------------------------
repeat till 2:19


Guitar 2
----------------------------------------------------------------------------
----------------------------------------------------------------------------
----------------11--------11-----------------11---------11------------------
------------9------------9----------9------9----------9-----------9---------
-------11----------11--------11-----11--------11---------11-----------------
----------------------------------------------------------------------------

repeat till 2:19 then its

------------
------------
---11-------
------------
---11-------
------------

[ Tab from: http://www.guitartabs.cc/tabs/f/funeral_for_a_friend/juneau_tab.html ]
Guitar 1 
----------------------------------------------------------------------------
----------------------------------------------------------------------------
--4-------------------------------------------------------------------------
--2----4/8------9-------8-------6-------------------------------------------
--2----4/6------6-------6-------9-------------------------------------------
--2----4/6-X8---6-X7----6-X7----6-X7----------------------------------------
repeat till 3:17


Guitar 2
----------------------------------------------------------------------------
----------------------------------------------------------------------------
-------------4--3-----------------------------------------------------------
-------4-4--------4-4-------------------------------------------------------
----------------------------------------------------------------------------
----------------------------------------------------------------------------
pm     - -                                                  repeat till 2:40
 


...Just a thaught to you...

Guitar 2
----------------------------------------------------------------------------
----------------------------------------------------------------------------
----8-11-8h9p8--------------------------------------------------------------
----------------11p9--------------------------------------------------------
----------------------------------------------------------------------------
----------------------------------------------------------------------------
repeat to 2:45

----------------------------------------------------------------------------
----------------------------------------------------------------------------
-----8----9-----8/6---------------------------------------------------------
-----x----x-----x-x--------------------------------------------------------
-----6----7-----6/4---------------------------------------------------------
----------------------------------------------------------------------------

----------------------------------------------------------------------------
----------------------------------------------------------------------------
----8-11-8h9p8--------------------------------------------------------------
---------------11p9---------------------------------------------------------
----------------------------------------------------------------------------
----------------------------------------------------------------------------
repeat to 2:54

----------------------------------------------------------------------------
----------------------------------------------------------------------------
-----8.....-9-8-6-4-6-4-----------------------------------------------------
-----x.....-x-x-x-x-x-x----------------------------------------------------
-----6.....-7-6-4-2-4-2-----------------------------------------------------
----------------------------------------------------------------------------

----------------------------------------------------------------------------
----------------------------------------------------------------------------
----8-11-8h9p8--------------------------------------------------------------
---------------11p9---------------------------------------------------------
----------------------------------------------------------------------------
----------------------------------------------------------------------------
repeat to 3:03

----------------------------------------------------------------------------
----------------------------------------------------------------------------
-----8...----9---8-6--------------------------------------------------------
-----x...----x---x-x--------------------------------------------------------
-----6...----7---6-4--------------------------------------------------------
----------------------------------------------------------------------------

----------------------------------------------------------------------------
----------------------------------------------------------------------------
----8-11-8h9p8--------------------------------------------------------------
-----------------11p9-------------------------------------------------------
----------------------------------------------------------------------------
----------------------------------------------------------------------------
repeat to 3:12

----------------------------------------------------------------------------
----------------------------------------------------------------------------
-----8.........-9-8-6-4-6-4 let ring to feedback----------------------------
-----x.........-x-x-x-x-x-x------------------------------------------------
-----6.........-7-6-4-2-4-2-------------------------------------------------
----------------------------------------------------------------------------
Guitar 1

Outro- figure out rhythm
----------------------------------------------------------------------------
----------------------------------------------------------------------------
-11..----11---11---9----8----11---------------------------------------------
--9..-----9----9---9----9----9----------------------------------------------
--7..----/9---11---11---11---9----------------------------------------------
----------------------------------------------------------------------------


Lyrics

Tied to the testing of wills, and my heart breaks and spills
Left to the sight of the sky, in your arms I'm defined
We're thrown to the wolves in the minds of your enemies
And I'm stone in the eyes of your foolishness

If this is what I'm meant for, no longer interesting
Fall forward just to even the score
Just a thought to you
Tied to the testing of wills, and my heart breaks and spills
Left to the sight of the sky, in your arms I'm defined
We're thrown to the wolves in the minds of your enemies
And I'm stone in the eyes of your foolishness

And I'm nothing more than a line in your book
Yet I'm nothing more within a line in your book
Yet I'm nothing more within a line in your book
Yet I'm nothing more than a line in your book
In your book
In your book

Where this is what I'm meant for, no longer interesting
Fall forward to even the score
Just a thought to you

Just a thaught to you
Just a thaught to you

Yeah I'm nothing more 
Yeah I'm nothing more than a line in your book
Yeah I'm nothing more than a line in your book
Comments