Funeral For A Friend - Juneau Chords & Tabs

 

Juneau Chords & Tabs

Funeral For A Friend Chords & Tabs

Version: 1 Type: Bass Tab 0 ratings
1 star 2 stars 3 stars 4 stars 5 stars
comments

Juneau Bass Tab

  intro (no bass)


Verse/chorus  00:14
g| ------------------------------------------------------------|
d| ------------------------------------------------------------|
a| ------------------------------------------------------------|  x4
e| ------7/-------00000000000000--2/4444444444444--------------|

then  00:52
g|---------------------
d|---------------------
a|-------7~------------
e|---------------------

g| ------------------------------------------------------------|
d| ------------------------------------------------------------|
a| ------------------------------------------------------------|  x6
e| ------7/-------00000000000000--2/4444444444444--------------|

then 01:47
g|-----------------
d|-----------------
a|-----------------
e|-666-777-999-----
[ Tab from: http://www.guitartabs.cc/tabs/f/funeral_for_a_friend/juneau_btab.html ]
bass on its own
g|-----------------------9~--------------------------|
d|---------------------9-----5/7~--------------------|
a|-------7~--------777-------------------------------|
e|------------------------------------7\-------------|


g|-------9---9----------------|
d|-----9~---9---9-------------| x 2 
a|--77-----------777-7-77-----|
e|----------------------------|

g| ------------------------------------------------------------|
d| ------------------------------------------------------------|
a| ------------------------------------------------------------|  x6
e| ------7/-------00000000000000--2/4444444444444--------------|


g|-----------------
d|-----------------
a|----------------- this is done twice i think on the 5 and 6 bit of the chorus.
e|-666-777-999----- 

ends with 
g|---------
d|---------
a|-----7~--  then the guitar outro
e|---------

hope its ok, Enjoy!

Note: the pace changes when the double bass drum kicks in.

key:
\= slide down
~= let the note ring
/= slide up                                Tab by Ben Lindfield
Comments