Funeral For A Friend - Jumeau Chords & Tabs

 

Jumeau Chords & Tabs

Funeral For A Friend Chords & Tabs

Version: 1 Type: Tab 1 rating
1 star 2 stars 3 stars 4 stars 5 stars
comments

Jumeau Tab

   
#----------------------------------PLEASE NOTE---------------------------------#
#This file is the author's own work and represents their interpretation of the #
#song. You may only use this file for private study, scholarship, or research. #
#------------------------------------------------------------------------------#

Feeder --- Jumeau (album version)

Im sure this is correct..as a big ffaf fan and after many listenings
to the Casually Dressed album i think this is correct!

Tuning
e
B
G
D
A
D

Intro Chords
|-----------------------------------------------------------------------------
|-----------------------------------------------------------------------------
|---12-12-12-12-12-12-12-12---12-12-12-12-12-12-12---12-12-12-12-12-12-12-12--
|---10-10-10-10-10-10-10-10---10-10-10-10-10-10-10---10-10-10-10-10-10-10-10--
|---8--8--8--8--8--8--8--8----8--8--8--8--8--8--8----8--8--8--8--8--8--8--8---
|-----------------------------------------------------------------------------

|-----------------------------------------------------------------------
|-----------------------------------------------------------------------
|---12-12-12-12-12-12-12---12-12-12-12-12-12-12---10-10-10-10-10-10-10--
|---10-10-10-10-10-10-10---10-10-10-10-10-10-10---10-10-10-10-10-10-10--
|---8--8--8--8/-10-10-10---12-12-12-12-12-12-12---12-12-12-12-12-12-12--
|-----------------------------------------------------------------------

|-------------------------------
|-------------------------------
|---9--9--9--9--9--9--9----12~--
|---10-10-10-10-10-10-10---10~--
|---12-12-12-12-12-12-12---10~--
|-------------------------------

Verse
|--------------------------------------------------------------
|--------------------------------------------------------------
|-------5-5-5-5-5-5-5-5--5-5-5-5-5-5-5--5-5-5-5-5-5-5--5-5-5-5-
|---10/-3-3-3-3-3-3-3-3--3-3-3-3-3-3-3--3-3-3-3-3-3-3--3-3-3-3-
|---10/-3-3-3-3-3-3-3-3--3-3-3-3-3-3-3--3-3-3-3-3-3-3--3-3-3-3-
|---10/-3-3-3-3-3-3-3-3--3-3-3-3-3-3-3--3-3-3-3-3-3-3--3-3-3-3-

|--------------------------------
|--------------------------------
|--------------------------------
|---10-10-10-10-10-10-10-10-9-10-
|---7--7--7--7--7--7--7--7--7-7--
|---7--7--7--7--7--7--7--7--7-7--

Chorus
Guitar 1 carries on doing the verse part

Guitar 2

|-------------------------------------------------------------------------------
|-----5-8p5-6p5---------8p5-6p5---------8p5-6p5---------8p5-6p5----5~-6~-5~-----
|---5-----------7-5---5---------7-5---5---------7-5---5---------7-----------7~--
|-------------------------------------------------------------------------------
|-------------------------------------------------------------------------------
|-------------------------------------------------------------------------------
[ Tab from: http://www.guitartabs.cc/tabs/f/funeral_for_a_friend/jumeau_tab.html ]
|-------------------------------------------------------------------------------
|-----5-8p5-6p5---------8p5-6p5---------8p5-6p5---------8p5-6p5----5~-6-6-6-----
|---5-----------7-5---5---------7-5---5---------7-5---5---------7---------------
|-------------------------------------------------------------------------------
|-------------------------------------------------------------------------------
|-------------------------------------------------------------------------------

|-------------------------------------------
|---5-5-5-----------------------------------
|-----------7-7-7--5-5-5--7-7-7-7--5~-------
|-------------------------------------------
|-------------------------------------------
|-------------------------------------------

Verse 2
|-------------------------------------
|-------------------------------------
|---5-5-5-5-5-5-5-5--5-5-5-5-5-5-5-5--
|---3-3-3-3-3-3-3-3--3-3-3-3-3-3-3-3--
|---3-3-3-3-3-3-3-3--3-3-3-3-3-3-3-3--
|---3-3-3-3-3-3-3-3--3-3-3-3-3-3-3-3--

|---------------------------------------------
|---------------------------------------------
|---9-9-9-9-9-9-9-9-10-10-10-10-9-9-9-9--7--5-
|---7-7-7-7-7-7-7-7-7--7--7--7--7-7-7-7--5--3-
|---7-7-7-7-7-7-7-7-7--7--7--7--7-7-7-7--5--3-
|---7-7-7-7-7-7-7-7-7--7--7--7--7-7-7-7--5--3-

|-------------------------------------------
|---5-5-5-----------------------------------
|-----------7-7-7--5-5-5--7-7-7-7--5~-------
|-------------------------------------------
|-------------------------------------------
|-------------------------------------------

Interlude

Guitar 1
|-----------------------------------------------------
|-----------------------------------------------------
|--------12-------12--------------12-------12---------
|-----10-------10-------10-----10-------10--------10--
|---8--------8--------8------8--------8---------8-----
|-----------------------------------------------------

|--------------------------------------------------------
|--------------------------------------------------------
|--------12--------12----------------12--------12--------
|------9---------9---------9-------9---------9--------9--
|---12--------12--------12------12--------12-------12----
|--------------------------------------------------------

|-----------------------------------------------------
|-----------------------------------------------------
|--------12-------12--------------12-------12---------
|-----10-------10-------10-----10-------10--------10--
|---8--------8--------8------8--------8---------8-----
|-----------------------------------------------------


|--------------------------------------
|--------------------------------------
|--------12--------12------------------
|------9---------9---------9-------9~--
|---12--------12--------12------12-----
|--------------------------------------



Guitar 2:


|------15-------15----------15--
|---13----13-------13----13-----
|------------14-------14--------  
|-------------------------------
|-------------------------------
|-------------------------------
Comments