Funeral For A Friend - Drive Chords & Tabs

 

Drive Chords & Tabs

Funeral For A Friend Chords & Tabs

Version: 2 Type: Tab 0 ratings
1 star 2 stars 3 stars 4 stars 5 stars
comments

Drive Tab

SONG: Drive
BAND: Funeral For A Friend
ALBUM: Hours
AWESOMENESS: 6673.217+

Here's Drive. The tab that was here before had most of it right, but there were, as he
said, a couple of bits missing, and his outro wasn't right. Here's mine, which is, as
far as I'm aware, all 100% right. My outro is, I know that.

Comments are encouraged and welcomed. emoluke@gmail.com


-------------
Kris Roberts:
-------------

Intro/Verse

eb|---------------------------------|
Bb|-7---8---7---8---10---8---10---8-|
Gb|---7-------7--------7--------7---|
Db|---------------------------------|
Ab|---------------------------------|
Db|---------------------------------|

Chorus

eb|-----------------------------|---------------------------------|
Bb|-----------------------------|---------------------------------|
Gb|-----------------------------|-7-----7-----7-----7-----7-------|
Db|-5-5h7-9--7-5---5-5h7-9--7-5-|---5-5---5-5---5-5---5-5---5-5-5-|
Ab|-----------------------------|---------------------------------|
Db|-----------------------------|---------------------------------|

Bridge

eb|------7--8-7--------------7--8-7-------7--10---|
Bb|-8-10---------10--8--8-10---------8-10-------8-|
Gb|-----------------------------------------------|
Db|-----------------------------------------------|
Ab|-----------------------------------------------|
Db|-----------------------------------------------|

Bridge Part 2
[ Tab from: http://www.guitartabs.cc/tabs/f/funeral_for_a_friend/drive_tab_ver_2.html ]
eb|-------------------------------8-7---------------8-7---------------|
Bb|-8-8/10-10--8---8-8/10-10--8-------10-8--8-8-8-8-----10-8--8-8-8-8-|
Gb|-------------------------------------------------------------------|
Db|-------------------------------------------------------------------|
Ab|-------------------------------------------------------------------|
Db|-------------------------------------------------------------------|

Outro

eb|-----------------------------------------------------------------|
Bb|---------0---------------0---------------0---------------0-------|
Gb|-----------0---0-----------0---0-----------0---0-----------0---0-|
Db|-----5-------5-------5-------5-------5-------5-------5-------5---|
Ab|-3-3---3---------3-3---3---------5-5---5---------5-5---5---------|
Db|-----------------------------------------------------------------|

eb|-----------------------------------------------------------------|
Bb|---------0---------------0---------------0---------------0-------|
Gb|-----------0---0-----------0---0-----------0---0-----------0---0-|
Db|-----5-------5-------5-------5-------5-------5-------5-------5---|
Ab|---------------------------------5-5---5---------5-5---5---------|
Db|-2-2---2---------2-2---2-----------------------------------------|


-------------
Darran Smith:
-------------

Intro/Verse

eb|------------------------|
Bb|------------------------|
Gb|------------------------|
Db|-9-------7-------5------|
Ab|-9--x16--7--x16--5--x32-|
Db|-9-------7-------5------|

Chorus (Except First Chorus, Which Is Silent)

eb|------------------------|
Bb|------------------------|
Gb|---------7-------5------|
Db|-9-------7-------5------|
Ab|-9--x16--5--x16--3--x32-|
Db|-9----------------------|

Bridge/Outro

eb|---------|    |-15----|
Bb|---------|    |----15-|
Gb|-(5)-----| or |-------|
Db|-----(5)-|    |-------|
Ab|---------|    |-------|
Db|---------|    |-------|

Bridge Part Two

eb|--------------------------------|
Bb|--------------------------------|
Gb|-5-------7-------9-------7------|
Db|-5-------7-------9-------7------|
Ab|-3--x16--5--x16--7--x16--5--x16-|
Db|--------------------------------|
Comments