Funeral For A Friend - Bullet Theory Chords & Tabs

 

Bullet Theory Chords & Tabs

Funeral For A Friend Chords & Tabs

Version: 2 Type: Tab 0 ratings
1 star 2 stars 3 stars 4 stars 5 stars
comments

Bullet Theory Tab

   
Artist: Funeral For A Friend
Track: Bullet Theory
Tuning: Standard 

Tabbed By Cossie

Key
p = Pull Off
h = Hammer On
b = Bend
~ = Let Ring


This is tab is for lead guitar and the second guitar plays cord. In this tab I
use standard tuning.

Lyrics can be found at:
http://www.funeralforafriend.com

A   577xxx
b   799xxx
C#  977xxx

INTRO 
                                        C#
e|---------------------------------------------------------
B|---------------------------------------------------------
G|-9-9-9-8-8-8--------------------6-6-6-------------------- (Palm Mute)
D|-------------9-9-9-9-9-9--9-9-9-------6-6-6-6-6-6-6-6----
A|---------------------------------------------------------
E|---------------------------------------------------------
[ Tab from: http://www.guitartabs.cc/tabs/f/funeral_for_a_friend/bullet_theory_tab_ver_2.html ]
   C#          C#           C#          C#
e|---------------------------------------------------------
B|---------------------------------------------------------
G|-9-9-9-8-8-8--------------------6-6-6--------------------
D|-------------9-9-9-9-9-9--9-9-9-------6-6-6-6-6-6-6-6----
A|---------------------------------------------------------
E|---------------------------------------------------------
 
   A           b            b           C#
e|---------------------------------------------------------
B|---------------------------------------------------9-----
G|-9-9-9-8-8-8--------------------6-6-6----9p8---8h9-------
D|-------------9-9-9-9-9-9--9-9-9-------6------9-----------
A|---------------------------------------------------------
E|---------------------------------------------------------

   A           b            b           C#(Let ring)
e|---------------------------------------------------------
B|---------------------------------------------------------
G|-9-9-9-8-8-8--------------------6-6-6--------------------
D|-------------9-9-9-9-9-9--9-9-9-------6~-----------------
A|---------------------------------------------------------
E|---------------------------------------------------------
Comments