Funeral For A Friend - 10 Scene Points To The Winner Chords & Tabs

 

10 Scene Points To The Winner Chords & Tabs

Funeral For A Friend Chords & Tabs

Version: 2 Type: Tab 0 ratings
1 star 2 stars 3 stars 4 stars 5 stars
comments

10 Scene Points To The Winner Tab

Funeral For A Friend - 10 Scene Points to the Winner
Written by Kris Roberts
Tabbed by Cameron Coles (with a lot of help from Kerry Roberts)

I've also seen it played with slides instead of 'hammer ons' and 'pull offs'

0:22
eb----------------------------------------------------------------|
Bb----------------------------------------------------------------|
Gb----------------------------------------------------------------|
Db----2h3p2p0-----2h3p2p0-----1-------2h3p2p0---------------------|
Ab------------------------------3---------------------8-7*--------|
Db0-0---------0-0---------0-0-----0-0---------0-0-/8--------------|
pm. .         . .         . .     . .         . .

eb----------------------------------------------------------------|
Bb----------------------------------------------------------------|
Gb----------------------------------------------------------------|
Db----2h3p2p0-----2h3p2p0-----1-------2h3p2p0---------------------|
Ab------------------------------3---------------------8-7*--------|
Db0-0---------0-0---------0-0-----0-0---------0-0-/8--------------|
pm. .         . .         . .     . .         . .

eb----------------------------------------------------------------|
Bb----------------------------------------------------------------|
Gb----------------------------------------------------------------|
Db----2h3p2p0-----2h3p2p0-----1-------2h3p2p0---------------------|
Ab------------------------------3---------------------8-7*--------|
Db0-0---------0-0---------0-0-----0-0---------0-0-/8--------------|
pm. .         . .         . .     . .         . .

eb----------------------------------------------------------------|
Bb----------------------------------------------------------------|
Gb----------------------------------------------------------------|
Db----2h3p2p0-----2h3p2p0-----1-------2h3p2p0-----2h3p2h3p2h3p2h3-|
Ab------------------------------3---------------------------------|
Db0-0---------0-0---------0-0-----0-0---------0-0-----------------|
pm. .         . .         . .     . .         . .



0:42
eb----------------------------------------------------------------|
Bb----------------------------------------------------------------|
Gb----------------------------------------------------------------|
Db----2h3p2p0-----2h3p2p0-----1-------2h3p2p0---------------------|
Ab------------------------------3---------------------8-7*--------|
Db0-0---------0-0---------0-0-----0-0---------0-0-/8--------------|
pm. .         . .         . .     . .         . .

eb----------------------------------------------------------------|
Bb----------------------------------------------------------------|
Gb----------------------------------------------------------------|
Db----2h3p2p0-----2h3p2p0-----1-------2h3p2p0---------------------|
Ab------------------------------3---------------------8-7*--------|
Db0-0---------0-0---------0-0-----0-0---------0-0-/8--------------|
pm. .         . .         . .     . .         . .

eb----------------------------------------------------------------|
Bb----------------------------------------------------------------|
Gb----------------------------------------------------------------|
Db----2h3p2p0-----2h3p2p0-----1-------2h3p2p0---------------------|
Ab------------------------------3---------------------8-7*--------|
Db0-0---------0-0---------0-0-----0-0---------0-0-/8--------------|
pm. .         . .         . .     . .         . .
eb----------------------------------------------------------------|
Bb----------------------------------------------------------------|
Gb----------------------------------------------------------------|
Db----2h3p2p0-----2h3p2p0-----1-------2h3p2p0---------------------|
Ab------------------------------3---------------------8-7*--------|
Db0-0---------0-0---------0-0-----0-0---------0-0-/8--------------|
pm. .         . .         . .     . .         . .



1:04
eb----------------------------------------------------------------|
Bb----------------------------------------------------------------|
Gb----------------------------------------------------------------|
Db--7---5-----------7---5---8---7---7---5-----------7---5---8---7-|
Ab--8---7-----------8---7---10--8---8---7-----------8---7---10--8-|
Db0---0---0-0-0-0-0---0---0---0---0---0---0-0-0-0-0---0---0---0---|
pm.   .   . . . . .   .   .   .   .   .   . . . . .   .   .   .

eb----------------------------------------------------------------|
Bb----------------------------------------------------------------|
Gb----------------------------------------------------------------|
Db--7---5-----------7---5---8---7---7---5-----------7---5---8---7-|
Ab--8---7-----------8---7---10--8---8---7-----------8---7---10--8-|
Db0---0---0-0-0-0-0---0---0---0---0---0---0-0-0-0-0---0---0---0---|
pm.   .   . . . . .   .   .   .   .   .   . . . . .   .   .   .



1:14
eb----------------------------------------------------------------|
Bb----------------------------------------------------------------|
Gb----------------------------------------------------------------|
Db--8---7---------------------------8---7-------------------------|
Ab----------8---7---10--8-----8/7-----------8---7---10--8-----8/7-|
Db8---8---8---8---8---8---/10-----10--10--10--10--10--10--/10-----|
pm.   .   .   .   .   .           .   .   .   .   .   .

eb----------------------------------------------------------------|
Bb----------------------------------------------------------------|
Gb----------------------------------------------------------------|
Db--8---7---------------------------8---7-------------------------|
Ab----------8---7---10--8-----8/7-----------8---7---10--8-----8/7-|
Db8---8---8---8---8---8---/10-----10--10--10--10--10--10--/10-----|
pm.   .   .   .   .   .           .   .   .   .   .   .



1:27
eb----------------------------------------------------------------|
Bb----------------------------------------------------------------|
Gb----------------------------------------------------------------|
Db--------77777777888888885555555577777777------------------------|
Ab55555555--------------------------------888888883333333355555555|
Db----------------------------------------------------------------|
pm................................................................

eb----------------------------------------------------------------|
Bb----------------------------------------------------------------|
Gb----------------------------------------------------------------|
Db--------77777777888888885555555577777777------------------------|
Ab55555555--------------------------------888888883333333355555555|
Db----------------------------------------------------------------|
pm................................................................
[ Tab from: http://www.guitartabs.cc/tabs/f/funeral_for_a_friend/10_scene_points_to_the_winner_tab_ver_2.html ]
eb----------------------------------------------------------------|
Bb----------------------------------------------------------------|
Gb----------------------------------------------------------------|
Db--------77777777888888885555555577777777------------------------|
Ab55555555--------------------------------888888883333333355555555|
Db----------------------------------------------------------------|
pm................................................................

eb----------------------------------------------------------------|
Bb----------------------------------------------------------------|
Gb----------------------------------------------------------------|
Db--------77777777888888885555555577777777------------------------|
Ab55555555--------------------------------888888883333333355555555|
Db----------------------------------------------------------------|
pm................................................................



1:37
eb----------------------------------------------------------------|
Bb----------------------------------------------------------------|
Gb----------------------------------------------------------------|
Db----2h3p2p0-----2h3p2p0-----1-------2h3p2p0-----2h3p2h3p2h3p2h3-|
Ab------------------------------3---------------------------------|
Db0-0---------0-0---------0-0-----0-0---------0-0-----------------|
pm. .         . .         . .     . .         . .



1:42
eb----------------------------------------------------------------|
Bb----------------------------------------------------------------|
Gb----------------------------------------------------------------|
Db----2h3p2p0-----2h3p2p0-----1-------2h3p2p0---------------------|
Ab------------------------------3---------------------8-7*--------|
Db0-0---------0-0---------0-0-----0-0---------0-0-/8--------------|
pm. .         . .         . .     . .         . .

eb----------------------------------------------------------------|
Bb----------------------------------------------------------------|
Gb----------------------------------------------------------------|
Db----2h3p2p0-----2h3p2p0-----1-------2h3p2p0---------------------|
Ab------------------------------3---------------------8-7*--------|
Db0-0---------0-0---------0-0-----0-0---------0-0-/8--------------|
pm. .         . .         . .     . .         . .

eb----------------------------------------------------------------|
Bb----------------------------------------------------------------|
Gb----------------------------------------------------------------|
Db----2h3p2p0-----2h3p2p0-----1-------2h3p2p0---------------------|
Ab------------------------------3---------------------8-7*--------|
Db0-0---------0-0---------0-0-----0-0---------0-0-/8--------------|
pm. .         . .         . .     . .         . .

eb----------------------------------------------------------------|
Bb----------------------------------------------------------------|
Gb----------------------------------------------------------------|
Db----2h3p2p0-----2h3p2p0-----1-------2h3p2p0---------------------|
Ab------------------------------3---------------------------------|
Db0-0---------0-0---------0-0-----0-0-----------------------------|
pm. .         . .         . .     . .         



2:02
eb----------------------------------------------------------------|
Bb----------------------------------------------------------------|
Gb----------------------------------------------------------------|
Db--7---5-----------7---5---8---7---7---5-----------7---5---8---7-|
Ab--8---7-----------8---7---10--8---8---7-----------8---7---10--8-|
Db0---0---0-0-0-0-0---0---0---0---0---0---0-0-0-0-0---0---0---0---|
pm.   .   . . . . .   .   .   .   .   .   . . . . .   .   .   .

eb----------------------------------------------------------------|
Bb----------------------------------------------------------------|
Gb----------------------------------------------------------------|
Db--7---5-----------7---5---8---7---7---5-----------7---5---8---7-|
Ab--8---7-----------8---7---10--8---8---7-----------8---7---10--8-|
Db0---0---0-0-0-0-0---0---0---0---0---0---0-0-0-0-0---0---0---0---|
pm.   .   . . . . .   .   .   .   .   .   . . . . .   .   .   .



2:12
eb----------------------------------------------------------------|
Bb----------------------------------------------------------------|
Gb----------------------------------------------------------------|
Db--8---7---------------------------8---7-------------------------|
Ab----------8---7---10--8-----8/7-----------8---7---10--8-----8/7-|
Db8---8---8---8---8---8---/10-----10--10--10--10--10--10--/10-----|
pm.   .   .   .   .   .           .   .   .   .   .   .

eb----------------------------------------------------------------|
Bb----------------------------------------------------------------|
Gb----------------------------------------------------------------|
Db--8---7---------------------------8---7-------------------------|
Ab----------8---7---10--8-----8/7-----------8---7---10--8-----8/7-|
Db8---8---8---8---8---8---/10-----10--10--10--10--10--10--/10-----|
pm.   .   .   .   .   .           .   .   .   .   .   .



2:24
eb----------------------------------------------------------------|
Bb----------------------------------------------------------------|
Gb----------------------------------------------------------------|
Db--------77777777888888885555555577777777------------------------|
Ab55555555--------------------------------888888883333333355555555|
Db----------------------------------------------------------------|
pm................................................................

eb----------------------------------------------------------------|
Bb----------------------------------------------------------------|
Gb----------------------------------------------------------------|
Db--------77777777888888885555555577777777------------------------|
Ab55555555--------------------------------888888883333333355555555|
Db----------------------------------------------------------------|
pm................................................................

eb----------------------------------------------------------------|
Bb----------------------------------------------------------------|
Gb----------------------------------------------------------------|
Db--------77777777888888885555555577777777------------------------|
Ab55555555--------------------------------888888883333333355555555|
Db----------------------------------------------------------------|
pm................................................................

eb----------------------------------------------------------------|
Bb----------------------------------------------------------------|
Gb----------------------------------------------------------------|
Db--------77777777888888885555555577777777------------------------|
Ab55555555--------------------------------888888883333333355555555|
Db----------------------------------------------------------------|
pm................................................................
Comments