Funeral For A Friend - 1045 Amsterdam Conversations Chords & Tabs

 

1045 Amsterdam Conversations Chords & Tabs

Funeral For A Friend Chords & Tabs

Version: 1 Type: Tab 0 ratings
1 star 2 stars 3 stars 4 stars 5 stars
comments

1045 Amsterdam Conversations Tab

   
-----------------------------------------------------------------
10.45 Amsterdam Conversations - Funeral For A Friend
-----------------------------------------------------------------
tabbed by:funeralforafrie
Email: sevenwaystoscreamyourname@hotmail.com

Tuning: Drop D and half a step down 

This sounds absolutely perfect, ive changed Dave's parts now, because
obviously they were not right, thanks very much to gantrithorx, for his help :)

   	Intro (Guitar 1)  Guitar 2 plays nothing
Eb|----------------------------------------------------------|
Bb|-----15-13------------------------------------------------|
Gb|-14-14-14-------------------------------------------------|
Db|-x--x--x--------------------------------------------------|
Ab|-12-12-12-------------------------------------------------|
Db|----------------------------------------------------------|
    		Chorus
Guitar 1
Eb|----------------------------------------------------------|
Bb|----------------------------------------------------------|
Gb|----------------------------------------------------------|
Db|-0-0-0-----3-3-3-----5-5-5-------8>-----------------------|
Ab|-0-0-0-----3-3-3-----5-5-5-------8>-----------------------|
Db|-0-0-0-----3-3-3-----5-5-5-------8>-----------------------|

Guitar 2
Eb|--------------8p7p0-8p7p0-10p8p0-10p8p0-9p7p0-------------|
Bb|----------------------------------------------------------|
Gb|----------------------------------------------------------|
Db|-0-0-0----------------------------------------------------|
Ab|-0-0-0-x3-------------------------------------------------|
Db|-0-0-0----------------------------------------------------|

or

Eb|-----------------8-----8---------8-----8----------|
Bb|-------------------6-----6---5h6---6-----6---5h6--|
Gb|---------------------5-----5---------5-----5------|
Db|-000-000-000-000----------------------------------|
Ab|-000-000-000-000----------------------------------|
Db|-000-000-000-000----------------------------------|


Guitar 1 Pre-Verse

Eb|----------------------------------------------------------|
Bb|----------------------------------------------------------|
Gb|-10-9-----------------------------------------------------|
Db|------10-8-10---------------------------------------------|
Ab|----------------------------------------------------------|
Db|----------------------------------------------------------|

Guitar 2 Pre-Verse
[ Tab from: http://www.guitartabs.cc/tabs/f/funeral_for_a_friend/1045_amsterdam_conversations_tab.html ]
Eb|-----8--------------------------------------------|
Bb|--------8~----------------------------------------|
Gb|--------------9------9----------------------------|
Db|-8~-------------10-----10~------------------------|
Ab|-8~-----------------------------------------------|
Db|-8~----------------8------------------------------|


Verse Riff, both guitars play at the same time
Eb|----------------------------------------------------------|
Bb|----------------------------------------------------------|
Gb|----------------------------------------------9-----------|
Db|----------------------3p2-------------------7---10--------|
Ab|------------------6p3-------------------------------------|
Db|-1p0-0-0-0-0-0-0-----------1p0-0-0-0-1/7-7----------------|

Guitar 1 pre-chorus when Matt sings "Then a silence so heavy"
Work out amount yourself

Eb|--------------------------------------------------|
Bb|--------------------------------------------------|
Gb|----------9-------------9-------------------------|
Db|-----10-----10-----10-----10------10--------------|
Ab|---8----8--------8----8---------8----10-----------|
Db|-8-------------8-------------10-------------------|

Guitar 2: pre-chorus

Eb|--------------------------------------------------|
Bb|-13-13-13-13-13-13-13-15--------------------------|
Gb|--x--x--x--x--x--x--x--x--------------------------|
Db|-10-10-10-10-10-10-10-12--------------------------|
Ab|--------------------------------------------------|
Db|--------------------------------------------------|

   Outro

Guitar 1 & 2              Or
Eb|-----------------|-------------------------|-----------------|
Bb|-----------------|-------------------------|-----------------|
Gb|----10-9---------|--15-14------------------|-----------------|
Db|-8-------10-8-10-|--------15-13-12-13-15-15|-3-5-8-12-10-----|
Ab|-8---------------|-------------------------|-3-5-8-12-10-----|
Db|-8---------------|-------------------------|-3-5-8-12-10-----|

 Then guitar 2 stops playing and guitar 1 finishes with
Eb|--------17-----15-17--|-----------------------------------------|
Bb|---15-----15----------|------14^--------------------------------|
Gb|-14--14-----14--------|------15^--------------------------------|
Db|----------------------|-----------------------------------------|
Ab|----------------------|-----------------------------------------|
Db|----------------------|-----------------------------------------|

| / slide up
| \ slide down
| h hammer-on
| p pull-off
| ~ vibrato
| + harmonic
| x Mute note
Comments