Funeral Dress - Sex Drugs And Rock And Roll Chords & Tabs

 

Sex Drugs And Rock And Roll Chords & Tabs

Funeral Dress Chords & Tabs

Version: 1 Type: Bass Tab

Sex Drugs And Rock And Roll Bass Tab

Sex Drugs And Rock And Roll (Bass)
Funeral Dress

Tabbed By: Taylor Sellers
Email: NoFX@herzeleid.net

Intro:
G|-------------------------------------------------------------------|
D|-------------------------------------------------------------------|
A|-------------------------------------------------------------------|
E|--5-5--3-3--5--0-0-0--5-5--3-3--5--0-0-0--5-5--3-3--5-5-5-5-0~~~---|
[ Tab from: http://www.guitartabs.cc/tabs/f/funeral_dress/sex_drugs_and_rock_and_roll_btab.html ]
Verse/Chorus:
G|---------------------------------------|
D|-------------------0-0-0-0--2-2-2-2----|
A|--0-0-0-0-0-0-0-0----------------------|
E|---------------------------------------|

Bridge:
G|--------7~----------------------------|
D|-----------7--------------------------|
A|--5-5-5-------5~----------------------|
E|------------------3-3-3-3--5-5-5-5----|

Thats the bass tab...for the bridge, just fret a power chord on your bass...itll be a lot easier