Fun With Bears - Closed Game Chords & Tabs

 

Closed Game Chords & Tabs

Fun With Bears Chords & Tabs

Version: 2 Type: Bass Tab 0 ratings
1 star 2 stars 3 stars 4 stars 5 stars
comments

Closed Game Bass Tab

FUN WITH BEARS   CLOSED GAME


1st part
G------------------------------------------------------------------|
D----------------------5-5-5-5-------------------------------------|
A-----------7-7-7-7------------------------------------------------|
E--0-0-0-0---------------------0--0--------------------------------|
[ Tab from: http://www.guitartabs.cc/tabs/f/fun_with_bears/closed_game_btab_ver_2.html ]
2nd part
G-------------------5-5-5-5---------------------------------------|
D----------7-7-7-7------------------------------------------------|
A-0-0-0-0-------------------0-0-----------------------------------|
E-----------------------------------------------------------------|

3rd part
G------------------------------------------------------------|
D------------------------------------------------------------|
A----7--7-7-7---------------7--7-7-7-------------------------|
E--------------6--6-6-6--8-----------6-6-6-6--8-8------------|

last part
G------------------------------------------------------------|
D------------------------------------------------------------|
A------------------------------------------------------------|
E---3-3-3-3-5-5-5-5-6-6-6-6-1-1-1-1--------------------------|
Comments