Fun Lovin Criminals - Scooby Snacks Chords & Tabs

 

Scooby Snacks Chords & Tabs

Fun Lovin Criminals Chords & Tabs

Version: 3 Type: Tab 0 ratings
1 star 2 stars 3 stars 4 stars 5 stars
comments

Scooby Snacks Tab

Fun lovin criminals
Scooby snacks
tabbed by Robbie
It's easy to play, and it sounds good

-----------------------------|guitar|---------------------------------------
|-------------------------------------------------|
|-3--3--------------------3--3--------------------|
|-2--2-2--2-2-5--5--------2--2-2--2-2-5--5--------|
|-0--0-2--2-2-5--5-5--5-5-0--0-2--2-2-5--5-5--5-5-|
|------0--0-0-3--3-5--5-5------0--0-0-3--3-5--5-5-|
|------------------3--3-3------------------3--3-3-|

|-----------| use vibrato
|-3-----6-5-|
|-2-----5-4-|
|-0---------|
|-----------|
|-----------|
[ Tab from: http://www.guitartabs.cc/tabs/f/fun_lovin_criminals/scooby_snacks_tab_ver_3.html ]
------------------------------|bass|--------------------------------------
                                 
G|-----------------|-----------------||-----------------|
D|-----------------|-----------------||-----------------|
A|-----------------|-----------------||-----------------|
E|---------5-5-5-5-|---------3-3-3-3-||---------5-5-5-5-|
B|-3-3-3-3---------|-1-1-1-1---------||-3-3-3-3---------|

G|-----------------|-----------------||-----------------|
D|---------7-7-7-7-|---------5-5-5-5-||---------7-7-7-7-|
A|-5-5-5-5---------|-3-3-3-3---------||-5-5-5-5---------|
E|-----------------|-----------------||-----------------|
Comments