Fun - Carry On Chords & Tabs

 

Carry On Chords & Tabs

Fun Chords & Tabs

Version: 1 Type: Bass Tab 0 ratings
1 star 2 stars 3 stars 4 stars 5 stars
comments

Carry On Bass Tab

   
-----------------------------------------------------------------------------
                             Carry On - fun
-----------------------------------------------------------------------------
Tabbed by: coheedfan28
E-mail: circaftw28@gmail.com

Tuning: Standard

0:00-1:13 REST

1:14-1:41 **1's not 11's**
G|---------------------------------------------------------------------|
D|---------------------------------------------------------------------| x6
A|--------------1-11-11-11-1-------------------------------------------|
E|-1-11-11-11-1--------------------------------------------------------|

1:42-2:01
G|---------------------------------------------------------------------|
D|---------------------------------------------------------------------|
A|---------------------------------------------------------------------|
E|-1~-3~-5~-3~--1~-3~-5~-3~-5~-----------------------------------------|

2:02-2:19
G|---------------------------------------------------------------------|
D|----------------------------3-33-33-33-3-----------------------------| x2
A|--------------1-11-1-3-33-3--------------1-11-1-3-33-3---------------|
E|-1-11-11-11-1--------------------------------------------------------|

2:20-2:37
G|----------------------------------------------------------------------|
D|----------------------------------------------------------------------|
A|-3~-1~----3~-1~-----3~-1~----3~-1~-3~---------------------------------|
E|-------1~-------1~--------1~------------------------------------------|
[ Tab from: http://www.guitartabs.cc/tabs/f/fun/carry_on_btab.html ]
2:38-2:56
G|----------------------------------------------------------------------|
D|----------------------------------------------------------------------|
A|----------------------------------------------------------------------|
E|-1-11-11-11-11-11-11-11-11-11-----------------------------------------|

2:57-3:16
G|----------------------------------------------------------------------|
D|----------------------------------------------------------------------| x2
A|----------------------------------------------------------------------|
E|-1-11-11-11-1-3-33-33-33-3-5-55-55-55-5-3-33-33-33-(5,second time)----|

3:17-3:34
G|---------------------------------------------------------------------|
D|----------------------------3-33-33-33-3-----------------------------| x2
A|--------------1-11-1-3-33-3--------------1-11-1-3-33-3---------------|
E|-1-11-11-11-1--------------------------------------------------------|

3:35-4:10
G|---------------------------------------------------------------------|
-|---------------------------------------------------------------------| x8
A|--------------1-11-11-11-1-------------------------------------------|
E|-1-11-11-11-1--------------------------------------------------------|

G|---------------------------------------------------------------------|
D|---------------------------------------------------------------------|
A|---------------------------------------------------------------------|
E|-1~~-11--------------------------------------------------------------|

| /  slide up
| \  slide down
| h  hammer-on
| p  pull-off
| ~  vibrato
| +  harmonic
| x  Mute note
============================================================================
Comments