Full Nine - Not Over Chords & Tabs

 

Not Over Chords & Tabs

Full Nine Chords & Tabs

Version: 1 Type: Tab 0 ratings
1 star 2 stars 3 stars 4 stars 5 stars
comments

Not Over Tab

   
Not Over- The Full Nine
CD: The Full Nine
Tabber: Mitchell (Mitchell_J@hotmail.com)
Tuning: Standard
V= vibrato   /= slide   ^= bend   ~= hold note

This is a great tune, and there shouldn't be any corrections needed here.

Intro: is all E5s with the bass notes playing what is the main riff

Main riff:
e -----------------------------------------------
B -----------------------------------------------
G -----------------------------------------------
D -2--2---------------------2-2------------------
A -2--2---------------------2-2---------------V--
E -0--0--3-4-5-5--3-4-5-3---0-0--3-4-5-5-5-4--3--

Chorus: second time it plays, it ends on one A#5 chord
e -------------------------------------------------------------------------
B -------------------------------------------------------------------------
G -4-4-4-4-4-4-4-4--7-7-7-7-7-7-7-7-------------------3-3-3-3-3-3-3-3/5-5--
D -4-4-4-4-4-4-4-4--7-7-7-7-7-7-7-7--5-5-5-5-5-5-5-5--3-3-3-3-3-3-3-3/5-5--
A -2-2-2-2-2-2-2-2--5-5-5-5-5-5-5-5--5-5-5-5-5-5-5-5--1-1-1-1-1-1-1-1/3-3--
E -----------------------------------3-3-3-3-3-3-3-3-----------------------

e --------------------------------------------------------
B --------------------------------------------------------
G -4-4-4-4-4-4-4-4--7-7-7-7-7-7-7-7-------------------3~--
D -4-4-4-4-4-4-4-4--7-7-7-7-7-7-7-7--5-5-5-5-5-5-5-5--3~--
A -2-2-2-2-2-2-2-2--5-5-5-5-5-5-5-5--5-5-5-5-5-5-5-5--1~--
E -----------------------------------3-3-3-3-3-3-3-3------
[ Tab from: http://www.guitartabs.cc/tabs/f/full_nine/not_over_tab.html ]
Instrumental part:
e ------------------------------------------^^------^^-----^^----------------
B -----------------------------------------(12)----(13)---(15)---------------
G ----------------------------------------------------------------------5-5--
D -6--6-----7--7-----8-----2-2-2-2-2---6--6----7--7----8------2-2-2-2-2-5-5--
A -6--6-----7--7-----8-----2-2-2-2-2---6--6----7--7----8------2-2-2-2-2-3-3--
E -4--4-----5--5-----6-----0-0-0-0-0---4--4----5--5----6------0-0-0-0-0------

e ----------------------------------------------------
B ----------------------------------------------------
G -------4-5-6-6-5-------------------------------5-5--
D -6--6--4-5-6-6-5--7----8-8--8/9/8--6--2-2-2-2--5-5--
A -6--6--2-3-4-4-3--7----8-8--8/9/8--6--2-2-2-2--3-3--
E -4--4-------------5----6-6--6/7/6--4--0-0-0-0-------

e ----------------------------------------------------------^^--------
B ---------------------------------------------------------(12)-------
G -------4-5-6-6-5-------------------------------5-5------------------
D -6--6--4-5-6-6-5--7----8-8--8/9/8--6--2-2-2-2--5-5---6--6-----7--7--
A -6--6--2-3-4-4-3--7----8-8--8/9/8--6--2-2-2-2--3-3---6--6-----7--7--
E -4--4-------------5----6-6--6/7/6--4--0-0-0-0--------4--4-----5--5--

Chords: E5  G#5  A5   A#5      B5    C5  C#5  D5
e	x    x   x   x   x   x   x   x    x   x
B	x    x   x   x   x   x   x   x    x   x
G	x    x   x   x & 3   x & 4   5    6   7
D	2    6   7   8   3   9   4   5    6   7
A	2    6   7   8   1   9   2   3    4   5
E	0    4   5   6   x   7   x   x    x   x

Tab originally from http://diehardtabs.tripod.com
Comments