Full Nelson - Not Content Chords & Tabs

 

Not Content Chords & Tabs

Full Nelson Chords & Tabs

Version: 1 Type: Tab 0 ratings
1 star 2 stars 3 stars 4 stars 5 stars
comments

Not Content Tab

author/artist : full nelson
title : not content
album : untitled
tabbed by : james rockhill
e-mail : jamesrockhill@hotmail.com

i know its right coz i made it up myself !

www.ani-mail.moonfruit.com.
my bands page.

*#* = VIBRATO
[ Tab from: http://www.guitartabs.cc/tabs/f/full_nelson/not_content_tab.html ]
INTRO: CLEAN, SOFT
e-------------------I-------------------I-------------------I   
B-------------------I-------------------I-------------------I   
G-------------------I-------------------I-------------------I   
D---9-9-9-9-9-9-9-9-I---7-7-7-7-7-7-7-7-I---9-9-9-9-9-9-9-9-I   
A--9-9-9-9-9-9-9-9--I--7-7-7-7-7-7-7-7--I--9-9-9-9-9-9-9-9--I
E-------------------I-------------------I-------------------I

e-----------------I
B-----------------I
G-----------------I
D---12---9---*7*--I
A--12---9---*7*---I
E-----------------I

ALL DONE 8 TIMES

CHORUS RIFF:
e------X-------I-------I------x------I
B------X-------I-------I------x------I
G------X-------I--4444-I------x------I
D--3-3-X-3-33--I--4444-I--5-5-x-3-33-I
A--3-3-X-3-33--I--2222-I--5-5-x-3-33-I
E--1-1-X-1-11--I-------I--3-3-x-3-33-I X5

IT REPEATS ITSELF OVER AND OVER AGAIN, WITH A BASS AND VOCAL BRIDGE IN THE MIDDLE.

E-MAILL ME WITH COMMENTS!
Comments