Full House - Hallo Hallo Chords & Tabs

 

Hallo Hallo Chords & Tabs

Full House Chords & Tabs

Version: 1 Type: Chords 0 ratings
1 star 2 stars 3 stars 4 stars 5 stars
comments

Hallo Hallo Chords

   
Full House - Hallo, Hallo
	(Heinrihsons/ - )
Intro (with chorus)
    Am
e|------0-------
B|-----1-0------
G|----2---2-----
D|---2-----2---- x4
A|--0-------0---
E|--------------

(with distortion)
    Am      Fmaj7   F         C   G
e|---------------------------------------
B|---------------------------------------
G|--2~2~2~2~------------------5~5~-------
D|--2~2~2~2~3~3~3~3~3~3~3~3~3~5~5~5~5~--- x2
A|--0~0~0~0~3~3~3~3~3~3~3~3~3~3~3~5~5~---
E|----------1~1~1~1~1~1~1~1~1~----3~3~---

Verse 1 (with chorus)
Am         Fmaj7        F    C G
Cik ðonakt skumji egles ðalc
Am      Fmaj7         F    C G
Un vçja dziesma drûma ðíiet
Am       Fmaj7        F    C G
Tâpçc ka tevis blakus nav
Am           Fmaj7         F    C G
Tâds klusums melns ap mani zied
[ Tab from: http://www.guitartabs.cc/tabs/f/full_house/hallo_hallo_crd.html ]
Chorus (with distortion)
    Am  C   G   C            Am  C   G   Em  Am  C   G
e|---------------------    ----------------------------------
B|---------------------    ----------------------------------
G|--2~2~5~5~----5~5~---    --2~2~5~5~--------2~2~5~5~--------
D|--2~2~5~5~5~5~5~5~--- x2 --2~2~5~5~5~5~2~2~2~2~5~5~5x5~~---
A|--0~0~3~3~5~5~3~3~---    --0~0~3~3~5~5~2~2~0~0~3~3~5x5~~---
E|----------3~3~-------    ----------3~3~0~0~--------3x3~~---
Am    C
Hallo hallo 
            G   C
Sirds klusi lûdz
Am    C
Hallo hallo
       G   C
Tâ neapsûdz
Am        C
Bet cer arvien
           G
Arvien vçl tic
Em       Am    C      G    
Ka nâksi tu (ka nâksi tu)
Am C G C Am C G C Am C G Em Am C G

Verse 2
Am         Fmaj7      F   C G
Jel kïûsti burvis telefon'
Am          Fmaj7        F    C G
Un liec lai skan tâ mîïâ balss
Am        Fmaj7     F  C G
Bez kuras mana dvçsele
Am      Fmaj7         F   C G
Kâ puíe sniegâ ziedot sals

Chorus

Verse 3
Am         Fmaj7        F    C G
Cik ðonakt skumji egles ðalc
Am      Fmaj7         F    C G
Un vçja dziesma drûma ðíiet
Am       Fmaj7        F    C G
Tâpçc ka tevis blakus nav
Am           Fmaj7         F    C G
Tâds klusums melns ap mani zied
Am Fmaj7 F CG x2

Chorus x2

Chords used:
   Am Fmaj7 F  C  G  Em
e|--0--0----1--0--3--0---
B|--1--1----1--1--0--0---
G|--2--2----2--0--0--0---
D|--2--3----3--2--0--2---
A|--0--0----1--3--2--2---
E|--0--0----1--x--3--0---
Comments