Full Devil Jacket - Where Did You Go Chords & Tabs

 

Where Did You Go Chords & Tabs

Full Devil Jacket Chords & Tabs

Version: 1 Type: Tab 0 ratings
1 star 2 stars 3 stars 4 stars 5 stars
comments

Where Did You Go Tab

   
Hey-this is the first submission of this song, so things might be a
little rocky--so listen to the song and make corrections! ;)
[ Tab from: http://www.guitartabs.cc/tabs/f/full_devil_jacket/where_did_you_go_tab.html ]
Chords used:
  E   Eminor   G-of some sort
--0-----0------x------------
--1-----0------x------------
--2-----2------0------------
--2-----2------0------------
--x-----x------2------------
--x-----x------3------------

Then the guitar in the background sounds like so

-------------------
-------------------
-------------------
-------------------
--3-2-3-2----------
-----------3-------

Wow, that was easy...umm..I think that is it-but please I know this 
could use some corrections---
Thanks to all of you who checked this out
Amanda
Comments