Fulfer Tj - Look Inside Chords & Tabs

 

Look Inside Chords & Tabs

Fulfer Tj Chords & Tabs

Version: 1 Type: Tab 0 ratings
1 star 2 stars 3 stars 4 stars 5 stars
comments

Look Inside Tab

Song: Look Inside
Artist: TJ Fulfer
Album: The Unknown
Submitted By: TJ Fulfer (The Actual Artist)

This song is also another fairly simple song to play.  One of the first few I've actually written, so of course it's gotta be a little bit more on the simple side.  Try listening to the song so that you can understand how you're supposed to play it.

STANDARD TUNING

KEY:
* - Harmonic
r - Let Ring
/ - Slide
X - Dead Notes

Intro (Delay Effect):

|--------------------------|-----------------------------|
|--------------------------|-----------------------------|
|------3-2-----------3-5r--|------3-2-----------3-5rr----|
|---5------0------5--------|---5------0------5-----------|
|-3----------0--3----------|-3---------0--3--------------|
|--------------------------|-----------------------------|

Verse 1 (Delay Effect):

|---------------------------------------------|
|---------------------------------------------|
|---------------------------------------------|
|-----0r---------0r---------0r--------0-------|
|---5----x-x---7----x-x---9----x-x----12-x-x--|
|-3------x-x-5------x-x-7------x-x-10----x-x--|
 
Verse 2 (Delay Effect):

|---------------------------------------------|
|---------------------------------------------|
|-----0r---------0r---------0r--------0r------|
|-----0r---------0r---------0r--------0r------|
|---5----x-x---7----x-x---9----x-x----12-x-x--|
|-3------x-x-5------x-x-7------x-x-10----x-x--|

Verse 3 (Delay Effect):

|-----0r---------0r---------0r--------0r------|
|-----0r---------0r---------0r--------0r------|
|-----0r---------0r---------0r--------0r------|
|-----0r---------0r---------0r--------0r------|
|---5----x-x---7----x-x---9----x-x----12-x-x--|
|-3------x-x-5------x-x-7------x-x-10----x-x--|

Chorus (Delay Effect):

|----------------------------------------------------
|----------------------------------------------------
|----------------------------------------------------
|-12-12-x-12-x-x-x-x-9-9-x-9-x-x-x-x-7-7-x-7-x-x-x-x-
|-12-12-x-12-x-x-x-x-9-9-x-9-x-x-x-x-7-7-x-7-x-x-x-x-
|-10-10-x-10-x-x-x-x-7-7-x-7-x-x-x-x-5-5-x-5-x-x-x-x-
[ Tab from: http://www.guitartabs.cc/tabs/f/fulfer_tj/look_inside_tab.html ]
--------------------------------|
--------------------------------|
--------------------------------|
5-5-5-5-5-5-5-5-5-5-5-5-x-x-x-x-|
5-5-5-5-5-5-5-5-5-5-5-5-x-x-x-x-|
3-0-0-3-0-0-0-0-3-0-0-3-x-x-x-x-|

Chorus (DISTORTION):

|----------------------------------------------------
|----------------------------------------------------
|----------------------------------------------------
|-12-12-x-12-x-x-x-x-9-9-x-9-x-x-x-x-7-7-x-7-x-x-x-x-
|-12-12-x-12-x-x-x-x-9-9-x-9-x-x-x-x-7-7-x-7-x-x-x-x-
|-10-10-x-10-x-x-x-x-7-7-x-7-x-x-x-x-5-5-x-5-x-x-x-x-

--------------------------------|
--------------------------------|
--------------------------------|
5-5-5-5-5-5-5-5-5-5-5-5-x-x-x-x-|
5-5-5-5-5-5-5-5-5-5-5-5-x-x-x-x-|
3-0-0-3-0-0-0-0-3-0-0-3-x-x-x-x-|

Solo (DISTORTION):

|-----------------------------------------------------|
|-----------------------------------------------------|
|-----------------------------------------------------|
|-------12--------9-------7---------------------------|
|----12----12---9---9---7---7-------------------------|
|-10----------7-------5-------3-0-0-3-0-0-0-0-3-0-0-3-|

Outro:

|-----0r---------0r---------0r--------0r--------------
|-----0r---------0r---------0r--------0r--------------
|-----0r---------0r---------0r--------0r--------------
|-----0r---------0r---------0r--------0r--------------
|---5----x-x---7----x-x---9----x-x----12-x-x----------
|-3------x-x-5------x-x-7------x-x-10----x-x----------

------------------------------------------------------
------------------------------------------------------
-----0r---------0r---------0r--------0r---------------
-----0r---------0r---------0r--------0r---------------
---5----x-x---7----x-x---9----x-x----12-x-x-----------
-3------x-x-5------x-x-7------x-x-10----x-x-----------

------------------------------------------------------|
------------------------------------------------------|
------------------------------------------------------|
-----0r---------0r---------0r-----------12r-----------|
---5----x-x---7----x-x---9----x-x----12-12r-----------|
-3------x-x-5------x-x-7------x-x-10------------------|

You'll never really get the full effect out of any of my songs
unless you actually hear it.  That's basically the same way
with almost any song. Play around with it, and have fun.  If you have questions or comments, please email me at: slightlydisabled@aol.com  or leave a message on my guestbook or messageboard  at  www.geocities.com/tjfulfer/

If you need the mp3..or cd..contact me!!!!

Comments