Fugees - No Woman No Cry Chords & Tabs

 

No Woman No Cry Chords & Tabs

Fugees Chords & Tabs

Version: 8 Type: Tab 0 ratings
1 star 2 stars 3 stars 4 stars 5 stars
comments

No Woman No Cry Tab

   
-------------------------------------------------------------------------------
     SONG NAME - Band Name
-------------------------------------------------------------------------------
Tabbed by: chillern
Email: andreas_01_@hotmail.com

First tab, be gentle :P
This theme repeats throughout the song:

Tuning: EADGBe

e|---0--------1----------0-------------------|
B|---1--------0----------1-------------------|
G|---0--------0----------2-------------------|
D|---------------------------0-2-3-3-2-2-----|
A|-3--------------2-3-0----------------------|
E|-----0-1-3---------------------------------|
[ Tab from: http://www.guitartabs.cc/tabs/f/fugees/no_woman_no_cry_tab_ver_8.html ]
I play this during the chorus, I know it's not actually played in the song, but
it sounds kinda neat if you play it correctly with the right timing, and it's in
the right key and all :P

e|----0-------0---------0-------1--------0--------1---------------------|
B|----1-------1---------1-------1--------1--------0---------------------|
G|----0-------0---------0-------2--------0--------0---------------------|
D|----------------------------------------------------------------------|
A|-3-----3-2-----2----0----0----------3-----3p2-------------------------|
E|---------------------------1-----0-----------0-----3------------------|


| /  slide up
| \  slide down
| h  hammer-on
| p  pull-off
| ~  vibrato
| +  harmonic
| x  Mute note
===============================================================================
Comments