Fugazi - Waiting Room Chords & Tabs

 

Waiting Room Chords & Tabs

Fugazi Chords & Tabs

Version: 2 Type: Bass Tab 0 ratings
1 star 2 stars 3 stars 4 stars 5 stars
comments

Waiting Room Bass Tab

          Band:  Fugazi
          Song:  Waiting Room (Bass)
          Me:    Scott Colberg
    
          
          Intro/Main riff:
          G|------------2---------|
          D|---2-3-4-44---4-------|
          A|-4--------------4-444-|
          E|----------------------|
          
          Verse:
          G|-----------------------------|
          D|-4-4-4-4-4-4-4---------------|
          A|---------------4-4-4-4-4-4-4-|
          E|-----------------------------|
          
 fo sho!    the other one was just a little off! I don't
 know about the verse though. O well. Your welcome!

Email - scotdog@attglobal.net

==========================================================
[ Tab from: http://www.guitartabs.cc/tabs/f/fugazi/waiting_room_btab_ver_2.html ]
          Band:  Fugazi
          Song:  Waiting Room (Bass)
          Me:    John Keogh
          
          
          I've looked for this song on bass... and the only version i could 
          find was pretty wrong, so i sat down and gave a shot at tabbing it out. 
          I normally don't do bass tabs, but it's a cool riff.
          
          Intro/Main riff:
          G|------------2---------|
          D|-0-2-3-4-44---4-------|
          A|----------------4-444-|
          E|----------------------|
          
          Verse:
          G|-----------------------------|
          D|-4-4-4-4-4-4-4---------------|
          A|---------------4-4-4-4-4-4-4-|
          E|-----------------------------|
          
            Verse:
            (alternate way... probably more accurate)
            G|---------2---------------|
            D|-4-4-4-4---4-------------|
            A|-------------4-4-4-4-4-4-|
            E|-------------------------|
          
          Chorus:
          G|-------------------------|
          D|-------------4-4-4-4-4-4-|
          A|-4-4-4-4-4-4-------------|
          E|-------------------------|
          
          The chorus and verse i'm pretty sure are both wrong, but not that far off. 
          The main riff is the coolest part anyway, and i'm almost positive on that..
          
          
          Questions, Comments... etc..
          envoyez-moi une lettre  johnk@ar2.com
Comments