Fugazi - Life And Limb Chords & Tabs

 

Life And Limb Chords & Tabs

Fugazi Chords & Tabs

Version: 1 Type: Tab 0 ratings
1 star 2 stars 3 stars 4 stars 5 stars
comments

Life And Limb Tab

'Life and Limb' by Fugazi 
tabbed by blamft (blamft@hotmail.com)

Verse
e|----------3-2-1-0-------3---3--
b|--------------------------2----
g|-1-1-3-1-0-------1-3-1-0-------
d|-------------------------------
a|-------------------------------
e|-------------------------------

Chorus
e|--4-3-3p2-4-4-3p2-----
b|-2---2---2-2-----2-5--
g|----------------------
d|----------------------
a|----------------------
e|----------------------

Bass break
d|--6-5-6-5-6-
a|-4---4---4--
e|------------

Funny chord arpeggiated just before lead break
e|-0-(---0---0---0---0--)--------
b|-4-(--4-4-4-4-4-4-4-4-)--------
g|-4-(-4---4---4---4----)--------

e|--4-3-3p2-----
b|-2---2--------
g|--------------
d|----------55--
a|----------44--
e|--------------
[ Tab from: http://www.guitartabs.cc/tabs/f/fugazi/life_and_limb_tab.html ]
Lead
e|---------------------------------------
b|-------------12--------------------13--
g|-----10-11-12----12-11-10----------14--
d|-11---------------------------11---11--
a|-------------------------12-12--12-12--
e|---------------------------------------

e|--------------------------12--12--
b|------------12---12-13-14---14----
g|----10-11-12---12-----------------
d|-11-------------------------------
a|----------------------------------
e|----------------------------------

e|----------------------------------------------------
b|-------------12--------------------13---12--13-12-8-
g|-----10-11-12----12-11-10----------14---13--14-13-9-
d|-11---------------------------11---11---10--11-10-6-
a|-------------------------12-12--12-12---11--12-11-7-
e|----------------------------------------------------

Outro
e|---4-3-3p2-----4-3p2-------4-3-3p2----
b|-/2---2----22-2-2---2-5--/2---2----22-
Comments