Fugazi - Latin Roots Chords & Tabs

 

Latin Roots Chords & Tabs

Fugazi Chords & Tabs

Version: 1 Type: Bass Tab 0 ratings
1 star 2 stars 3 stars 4 stars 5 stars
comments

Latin Roots Bass Tab

   
Band: Fugazi
Song: Latin Roots
Album: Steady Diet Of Nothing
Tabbed by: Daniel Rodriguez
E-mail: label1987@hotmail.com

/= slide up

Riff 1
G|-----------------------------------------------------|
D|-----------------------------------------------------|
A|-------------3-4-------------------------------------|
E|---0-5-7-5-7-----------------------------------------|

Riff 2
G|-----------------------------------------------------|
D|-----------------------------------------------------|
A|---0-1-2-1-2--3-5-3-4--------------------------------|
E|-----------------------------------------------------|
[ Tab from: http://www.guitartabs.cc/tabs/f/fugazi/latin_roots_btab.html ]
Riff 3 (do up strokes on strings)
G|-----------------------------------------------------|
D|---3~-3~-4~-4~---3~-3~-4~-4~-------------------------|
A|---3~-3~-4~-4~---3~-3~-4~-4~-------------------------|
E|-----------------------------------------------------|

Riff 2
G|-----------------------------------------------------|
D|-----------------------------------------------------|
A|-2-2-2-2-2-2-2-2-2-2-2-2-2/7-7-7-7-7-7-7-7-7-7-7-7-7-|
E|-----------------------------------------------------|

ORDER
Riff 1 (4x)
Riff 2 (1x)
Riff 1 (4x)
Riff 2 (1x)
Riff 1 (4x)
Riff 3
Riff 4 (2x)
Riff 1 (6x)
Riff 2 (1x)
Riff 1 (4x)
Riff 3
Riff 4 (4x)
Riff 4 (4x)(you can add some extra notes to make it sound the same)
(stop)
Riff 4 (4x)(you can add some extra notes to make it sound the same)

if you have any comments or corrections e-mail me.enjoy!
Comments