Fugazi - Latest Disgrace Chords & Tabs

 

Latest Disgrace Chords & Tabs

Fugazi Chords & Tabs

Version: 1 Type: Tab 0 ratings
1 star 2 stars 3 stars 4 stars 5 stars
comments

Latest Disgrace Tab

Artist : Fugazi
Album : Red Medicine
Song : Latest Disgrace

transcribed by: Santtu Nykδnen 29.01-04

Verse:
e --------------------------------
B --------------------------------
G --------------------------------
D ----------------10101010101010--   <-- Only 1. time
A -----------------8-8-8-8-8-8-8--
E -9h11-12-9-9-12-----------------

e --------------------------------------------
B --------------------------------------------
G --------------------------------------------
D --------------------------------------------
A -------------------------------------10-12--
E -9h11-12-11-9-12-11-9-9-12-11-9-9-12--------

e --------------------------------
B --------------------------------
G --------------------------------
D ----------------10101010101010--
A -----------------8-8-8-8-8-8-8--
E -9h11-12-9-9-12-----------------
[ Tab from: http://www.guitartabs.cc/tabs/f/fugazi/latest_disgrace_tab.html ]
Chorus:		       
e ---------------------------------10s-8-8-8s7-7-7s5-5-5s3-3-3--
B ---------------------------------12s101010s9-9-9s7-7-7s5-5-5--
G -------------------------7---7--------------------------------
D -12-12--121010-10-9-9--9-7-9-7--------------------------------
A -12-12—-121010-10-9-9—-9-5-9-5--------------------------------
E -10-10—-10-8-8-—8-7-7-—7---7----------------------------------

e -----3-3----------------        e --------------------
B -----5-3-5---55555555---        B -----5---------5----
G -5-7-------5------------        G -5-7---4---5-7---4--
D ------------------------        D --------------------  2. chorus last time
A ------------------------        A --------------------
E ------------------------        E --------------------

Interlude:
e --------------------------
B --------------------------
G --------------------------
D -9-9-1010—-9-9—-14141010--  X 8
A -9-9-1010—-9-9—-14141010--
E -7-7--8-8—-7-7—-1212-8-8--

e --------------------------------------
B --------------------------------------
G --------------------------------------
D -14141414-12121212-11111111--9-9-9-9--
A -14141414-12121212—11111111--9-9-9-9--
E -12121212-10101010--9-9-9-9—-7-7-7-7—

Comments&corrections

snykanen@luukku.com
Comments