Fugazi - Break Chords & Tabs

 

Break Chords & Tabs

Fugazi Chords & Tabs

Version: 2 Type: Tab

Break Tab

FUGAZI - BREAK (INTRO)

GUITAR 1

e|------------------------------------------------------------|
B|------------------------------------------------------------|
G|------------------------------------------------------------| repeat
D|------------------------------------------------------------|
A|------------------------------------------------------------|
E|---5-5-5-5-5-5-5-5-5-5-5-5-8-7-0-0-0-0-0-0-0-0-0-0-0-0------|
   pm...................................................

GUITAR 2
[ Tab from: http://www.guitartabs.cc/tabs/f/fugazi/break_tab_ver_2.html ]
RIFF 1
e|------------------------------------------|
B|---12--11--10-----------------------------|
G|---------------11--11//13//12-------------|
D|------------------------------------------|
A|------------------------------------------|
E|------------------------------------------|

RIFF 2
e|---10--12----------10--12----------10--12-------------------------------------------|
B|-----------12--------------12--------------12------------12--11--10--10--11--12-----|
G|------------------------------------------------------------------------------------|
D|------------------------------------------------------------------------------------|
A|------------------------------------------------------------------------------------|
E|------------------------------------------------------------------------------------|


GUITAR 1 PLAYS THROUGH ENTIRE INTRO, LISTEN TO SONG FOR CUES AND TIMING ON GUITAR 2.  
ARE CORRECT HOWEVER COUNT IS HARD TO DISPLAY)

ENJOY


TABBED BY KRANDA