Fuel - Shimmer Chords & Tabs

 

Shimmer Chords & Tabs

Fuel Chords & Tabs

Version: 3 Type: Tab 0 ratings
1 star 2 stars 3 stars 4 stars 5 stars
comments

Shimmer Tab

Author/Artist: Fuel
Title: Shimmer
Album: Sunburn
Transcribed by: skasey
Email: sonar16@hotmail.com

27/3/03 - vaguely-added lyrics
This is the correct version.


  Fig 1

------0----0---0-0-0--0--0---0---0-0-0-0-0---0------
------5----5---5-5-5--5/-7---7---7-8-8-8-8---7------
------0----0---0-0-0--0--0---0---0-0-0-0-0---0------   x5
------5----5---5-5-5--5/-7---7---7-9-9-9-9---7------
------3----3---3-3-3--3/-5---5---5-7-7-7-7---5------
----------------------------------------------------
 she calls..                     ..just..I  was
                                                                      

 Fig 2

-0--0---0-x--0----0----0--0--0-0---0--0---x--x------
-5--5---5-x--7----8----8--8--8-8---7--7---x--x------
-0--0---0-x--0----0----0--0--0-0---0--0---x--x------  x2
-5--5---5-x--7----9----9--9--9-9---7--7---x--x------
-3--3---3-x--5----7----7--7--7-7---5--5---x--x------
----------------------------------------------------
     ..she's a-   shamed                                 


 Fig 3

-0--0--0-0-0----0---0--0--0-0-0-0--0--0-0--0--------
-5--5--5-5-5----5/--7--7--7-7-7-7--7--7-7--7--------
-0--0--0-0-0----0---0--0--0-0-0-0--0--0-0--0--------
-5--5--5-5-5----5/--7--7--7-7-7-7--7--7-7--7--------
-3--3--3-3-3----3/--5--5--5-5-5-5--5--5-5--5--------
----------------------------------------------------
past..          ..a- ble.. 


 Chorus                                                                    
[ Tab from: http://www.guitartabs.cc/tabs/f/fuel/shimmer_tab_ver_3.html ]
-----2---------0----0----0--0-0----------3---3----3---3---3----2----2--0--0---
-----0---------0----1----1--1-1----------3---3----3---3-----3--3----3--0--1---
-----0---------0----2----2--2-2----------0---0----0---2--------2----2--0--2---
-----2---------2----2----2--2-2----------2---2----2---0--------0----0--0--2---
-----2---------2----0----0--0-0---2------3---3----3-----------------------0---
-0---0---------0--------------------------------------------------------------
      ..here  and  now       will we    ev- er  be  a-gain__

                                                                       

-0--0--------3---3---3--3-------3------3---------
-1--1--0-----3---3---3--3-------3------3---------
-2--2--0-----0---0---0--0-------0------0---------
-2--2--0-----2---2---2--2-------2------2---------
-0--0--2-----3---3---3--3-------3------3---------
-------------------------------------------------
    I have   found      all that    shim - mers                

 
 Interlude

-2---------5---4---------4--------------2--------
-3-----------------3----------3---------3--------
-2---------------------2----------2-----2--------   x4
-0--------------------------------------0--------
-------------------------------------------------
-------------------------------------------------
  
                                                                 

-0---------------------3-------------------------
-7---------------------3-------------------------
-0---------------------0-------------------------
-7---------------------2-------------------------
-5---------------------3-------------------------
-------------------------------------------------
 "Guess I'll let it    go"
Comments