Fuel - Prove Chords & Tabs

 

Prove Chords & Tabs

Fuel Chords & Tabs

Version: 1 Type: Bass Tab 0 ratings
1 star 2 stars 3 stars 4 stars 5 stars
comments

Prove Bass Tab

          From            : Thorsten (thorsten_genz@hotmail.com)
          Artist          : Fuel
          Bass Performance: Prove
          Comments:       : This is my first Bass Tab! I hope it's quite 
          		  right. This song totally kicks ass and it's 
          		  much fun to play it!
          ---
          Strings: D,G,D,G (Tune the E and the A String 2/2 steps down)
          ====================
          
          Intro/Verse
                                                       
          G---------------------------------------
          D---------------------------------------	play it 3x for intro and verse
          G---------------------------------------
          D----0--0--0--0--2t------0--0--0--3--5--
          >                                                                                
          
          Chorus
          
                       
          G--------------------------------------------------------------------
          D--------------------------------------------------------------------
          G-----3--3--3--3--3/-5--5--5--5--5------0--0--0--0--0--2--2--2--2--2-
          D--------------------------------------------------------------------
          >                                                                                
          
                       
          G------------------------------------------------------------------
          D------------------------------------------------------------------
          G------------------------------------------------------------------
          D--3--3--3--3--3/-5--5--5--5--5-----1--1--1--1--1--13-13-13-13--0--
          >                                                                               
          
          Interlude to verse (part 1)                                                    
          G--------------------
          D--------------------
          G--------------------
          D--3--3--3--3--5--5--                                           
          
          Return to verse, then chorus with interlude part 1 and then:
          
          
          Solo (play it fast)
                            
          G--------------------------------------------------------------
          D--------------------------------------------------------------
          G--------------------------------------------------------------   
          D--0--6--6--5--3--0--3--0--5--3----0--6--6--5--3--0--3--0--5--3			 
           2x, then verse + interlude part 2
          >                                                                                
          
          Interlude to verse (part 2)                                              
          G---------------------------------
          D---------------------------------
          G---------------------------------  3x then
          D--0--0--0--0--0--3--3--3--2--2--2
          >                                                                                
          
          
          G-------------------------------------
          D-------------------------------------
          G-------------------------------------
          D--0--0--0--0--0--0--3--3--3--3--5--5
          >                                                      
          
          After that verse 3x (till the end)
          
          Please listen to the song to get the timing!
[ Tab from: http://www.guitartabs.cc/tabs/f/fuel/prove_btab.html ]
Comments