Fuel - Last Time Chords & Tabs

 

Last Time Chords & Tabs

Fuel Chords & Tabs

Version: 2 Type: Tab 0 ratings
1 star 2 stars 3 stars 4 stars 5 stars
comments

Last Time Tab

i noticed there wasn't any tabs of this song so i decided to do it my-
self. this is my first tab but i'm not a beginner so i think it's 
pretty close.
intro/prechorus/chorus
|-------------------------------------------------|
|-------------------------------------------------|
|-4-4-4-4-4-4-5-5-5-5-5-5-------------7-7-7-7-7-7-|
|-4-4-4-4-4-4-5-5-5-5-5-5-2-2-2-2-2-2-7-7-7-7-7-7-|
|-2-2-2-2-2-2-3-3-3-3-3-3-2-2-2-2-2-2-5-5-5-5-5-5-|
|-------------------------0-0-0-0-0-0-------------|
verse
|-------------------------------------------------|
|-------------------------------------------------|
|-------------------------------------------------|
|--4--4--4--4-------------------------------------|
|--4--4--4--4-------------------------------------|
|--2--2--2--2--etc.-------------------------------|
bridg p.m.......................................
|-------------------------------------------------|
|-------------------------------------------------|
|-------------------------------------------------|
|-------------------------------------------------|
|-------------------------------------------------|
|-0-0-x-x-0-0-x-x-0-0-x-x-0-0-x-x-etc.------------|
solo
b|-5-7-5-7-5-7-5-7-9-7-9-7-5----------------------|
[ Tab from: http://www.guitartabs.cc/tabs/f/fuel/last_time_tab_ver_2.html ]
Comments