Fuel - Innocent Chords & Tabs

 

Innocent Chords & Tabs

Fuel Chords & Tabs

Version: 5 Type: Tab 0 ratings
1 star 2 stars 3 stars 4 stars 5 stars
comments

Innocent Tab

Artist: Fuel
Song: Innocent
Album: Something Like Human
Tabbed by Rick Thornburgh
Submitted By: IcEmAn

Standard Tuning

Intro/Verse
e-|-----------------------0--0--0----0----------------------
B-|--8--8-8-8-8-8--8/10---7--7--5----5----------------------
G-|--9--9-9-9-9-9--9/11---0--0--0----0----------------------
D-|--9--9-9-9-9-9--9/11---7--7--5----5----------------------
A-|--7--7-7-7-7-7--7/9----5--5--3----3----------------------
E-|---------------------------------------------------------

2nd Guitar
e-|----------------------------|----------------------------
B-|----------------------------|----------------------------
G-|----------------------------|----------------------------
D-|-----5---7---5-7------------|-----5---7--5-7-------------
A-|---7---7---------7-9b10r9-7-|---7---7--------7-9h10--10--
E-|----------------------------|----------------------------


Chorus
e-|--3--3-3-3-3-3--2--3--2--3--3-3-3-3-3--2--3--2-----------
B-|--3--3-3-3-3-3--3--3--3--3--3-3-3-3-3--3--3--3-----------
G-|--0--0-0-0-0-0--2--0--2--0--0-0-0-0-0--2--0--2-----------
D-|--3--3-3-3-3-3--0--0--0--3--3-3-3-3-3--0--0--0-----------
A-|--2--2-2-2-2-2--X--X--X--2--2-2-2-2-2--X--X--X-----------
E-|----------------2--3--2----------------2--3--2-----------

e-|--3--3-3-3-3-3--0--0--0----0---0---0---0----|-----|--
B-|--3--3-3-3-3-3--0--0--0----0---0---0---0----|-----|--
G-|--0--0-0-0-0-0--6--6--6----9---9---9---11---|-7/9-|--
D-|--3--3-3-3-3-3--7--7--7---10--10--10---12---|-----|--
A-|--2--2-2-2-2-2--7--7--7---10--10--10---12---|-----|--
E-|----------------5--5--5----8---8---8---10---|-----|--
					        Fill

Bridge
e-|---------------------------------------------------------
B-|---------------------------------------------------------
G-|---------------------------------------------------------
D-|-2-2-2-2-2-2-2-2-2-2-2-2---------------------------------
A-|-2-2-2-2-2-2-2-2-2-2-2-2---------------------------------
E-|-0-0-0-0-0-0-0-0-0-0-0-0-0-2-3-5-------------------------

[ Tab from: http://www.guitartabs.cc/tabs/f/fuel/innocent_tab_ver_5.html ]
Rhythm for solo
e-|---------------------------------------------------------
B-|---------------------------------------------------------
G-|---------------------------------------------------------
D-|-5-5-5-5-5-5-5-5-5-5-5-5---------5-5-5-5-5-5-5-5-5-5-5-5-
A-|-3-3-3-3-3-3-3-3-3-3-3-3---------3-3-3-3-3-3-3-3-3-3-3-3-
E-|-------------------------0-2-3-5-------------------------

e-|--------------------------------------------------|--
B-|--------------------------------------------------|--
G-|--------------------------------------------------|--
D-|-7-7-7-7-7-7-7-7-7-7-7-7---------7-7-7-7-7-7--4---|--
A-|-5-5-5-5-5-5-5-5-5-5-5-5---------5-5-5-5-5-5--2---|--
E-|-------------------------0-2-3-5------------------|--


Solo 2nd guitar
e-|---------------------------------------------------------
B-|---------------------------------------------------------
G-|---------------------------------------------------------
D-|--12vvvv-------------------12b13r12-12b13vvv-------------
A-|---------14-15-14--15-14vvv-----------------15-14--15-14-
E-|---------------------------------------------------------

e-|------15/17vv--17b18r17-16v--16-14-16--17vv-17b18r17-14vv
B-|--15-----------------------------------------------------
G-|---------------------------------------------------------
D-|---------------------------------------------------------
A-|---------------------------------------------------------
E-|---------------------------------------------------------


Bridge 2
e-|---------------------------------------------------------
B-|---------------------------------------------------------
G-|--6----9----6----9----11----11----11----11---------------
D-|--7---10----7---10----12----12----12----12---------------
A-|--7---10----7---10----12----12----12----12---------------
E-|--5----8----5----8----10----10----10----10---------------






Order:
Intro/Verse 6x (Vocals after 2x)
Chorus
Verse 6x (distortion & drums after 2x)
Chorus
Bridge/Solo
Verse 4x
Chorus
Bridge 2*
Intro riff 4x

*Listen to it, and strum however many times you need to in between.


Comments