Fuel - Hemorrhage In My Hands Chords & Tabs

 

Hemorrhage In My Hands Chords & Tabs

Fuel Chords & Tabs

Version: 1 Type: Bass Tab 0 ratings
1 star 2 stars 3 stars 4 stars 5 stars
comments

Hemorrhage In My Hands Bass Tab

fuel 
hemorage (in my hands)
Enemy Offline

Intro
|--------------------|
|--------------------|
|------------------6-|
|-6-6-6-6-4-4-4-4----|

Verse 2 and bridge part 2
|-----------------|
|-----------------|
|-1-----------3-4-|
|---4---1---4-----|no bass verse one 

pre chours
|
|
|-9-8-6
|

Cours 1 part 1             Chours 2 and 3 part 1
|-------------|            |----------------------------------|
|-------------|            |----------------------------------|
|-6-6-4-4-----|            |6-6-6-6-4-4-4-4-----------3-4-3-4-|
|---------4-4-|            |----------------4-4-4-4-4---------|
[ Tab from: http://www.guitartabs.cc/tabs/f/fuel/hemorrhage_in_my_hands_btab.html ]
Chours 1 2 part 2
|--------------------------------------------------------------------------------|
|--------------------------------------------------------------------------------|
|------------4-4-4-4-4------------------------------------4-4-4-4-4--------------|
|-1-2-2-2-2------------4-4-4-4-4-1-1-1-1-1--1--2-2-2-2-2-------------1-1-1-1-1-1-|

bridge part1
|-----------------------------------------|
|-----------------------------1-1-3-3-----|
|------------1-1--3-3-4-4-3-4-------------|
|-2-2---4-4----------------------------1--|

bridge part 3
|---------------------------|
|---------------------------|
|------------------1-1--3-3-|
|-1-1-3-3-4-4-3-4-----------|

lats chours part 2/outro
|----------------------------------------------|
|----------------------------------------------|
|-------------4-4-4-4-4-4----------------------|
|1-2-2-2-2-2--------------4-4-4-4-4--1-1-1-1-1-|repeats alot

thats the song 
there is no more to the song
the song is over now
you can stop reading my tab
whyare you still reading it 
okay ill stop writng if you stop reading
   

how come your still reading :}
Comments