Fuel - Falls On Me Chords & Tabs

 

Falls On Me Chords & Tabs

Fuel Chords & Tabs

Version: 5 Type: Tab 0 ratings
1 star 2 stars 3 stars 4 stars 5 stars
comments

Falls On Me Tab

   
----------------------------------------------------------------------------
			     Falls on Me (Intro)- Fuel
----------------------------------------------------------------------------

Tabbed by: YlwThunder87	
Email: ylwthunder87@yahoo.com

Tuning: EADGBe

There's already a great tab of this song, the intro is a tad off however.
  
Guitar 1 Intro: Repeat x3
e|-----------------------------------|
B|-----------------------------------|
G|-----------------------------------|
D|-----------2----------------2------|
A|-----3---3-------3----3---3----3---|
E|-------3------3---------3-----3----|

Guitar 1 Intro cont'd:
e|--------------------|
B|---7--7--8--7--7----|
G|---0--0--0--0--0----|
D|---7--7--7--7--7----|
A|---5--5--5--5--5----|
E|--------------------|
[ Tab from: http://www.guitartabs.cc/tabs/f/fuel/falls_on_me_tab_ver_5.html ]
Guitar 2 Intro
  Fmaj9 Am7 Fmaj9 Am7 Fmaj9 Am7
e|------------------------------|
B|--10--10----10--10----10--10--|
G|---0---0-----0---0-----0---0--|
D|--10--10----10--10----10--10--|
A|---8---0-----8---0-----8---0--|
E|------------------------------|

Guitar 2 Intro cont'd:
e|--------------------|
B|---7--7--8--7--7----|
G|---0--0--0--0--0----|
D|---7--7--7--7--7----|
A|---5--5--5--5--5----|
E|--------------------|

Both Guitars play this before entering chorus:
e|---------------------|
B|---7--7--8--7--7--10-|
G|---0--0--0--0--0---0-|
D|---7--7--7--7--7--10-|
A|---5--5--5--5--5---8-|
E|---------------------|


| /  slide up
| \  slide down
| h  hammer-on
| p  pull-off
| ~  vibrato
| +  harmonic
| x  Mute note
============================================================================
Comments