Fuel - Falls On Me Chords & Tabs

 

Falls On Me Chords & Tabs

Fuel Chords & Tabs

Version: 4 Type: Tab 0 ratings
1 star 2 stars 3 stars 4 stars 5 stars
comments

Falls On Me Tab

   
Tabber: Jonathan Rafaiani
I just tabbed the intro cause that seemed to be the main part that no one could get.
the main difference in my tab is the last 2 chords of the intro.  all the other tabs
were pretty far off (D sounds good, but they dont use D) and mine sounds right when i
play it with the song.  Would have done the whole thing, but i have an exam tomorrow.
(whoever created probabilities should have taken up a hobbie, like guitar or learning
to explain yourself clearly)

[ Tab from: http://www.guitartabs.cc/tabs/f/fuel/falls_on_me_tab_ver_4.html ]
Intro/verse:
  Fmaj7sus2       Am                  Fmaj7sus2       Am
|----------0----------------0-----|-----------0---------------0-----|
|---------------------------------|---------------------------------|
|------0-----0----------0----0----|-------0----0----------0----0----|
|---10---10----10---10----10---10-|----10---10---10---10----10---10-|
|-8---------------0---------------|-0h8-------------0---------------|
|---------------------------------|---------------------------------|

  Fmaj7sus2        Am                D4sus2   
|----------0-----------------0----|-5---5---5---5---5-------|
|----------------------------10---|-7---7---8---8---8p7-----|
|------0-----0----------0----9----|-7---7---7---7---7----7b-|
|---10---10----10---10----10-7----|-7---7---7---7---7-------|
|0h8--------------0---------------|-5---5---5---5---5-------|
|---------------------------------|-------------------------|
Comments