Fuel - Down Chords & Tabs

 

Down Chords & Tabs

Fuel Chords & Tabs

Version: 1 Type: Tab 0 ratings
1 star 2 stars 3 stars 4 stars 5 stars
comments

Down Tab

   
Name: Sterling 

Tabs: Fuel - Down
Number 8 on the new kick ass Fuel CD.
Email me @ silver1499@aol.com for corrections,
comments, whatever.

Drop D
Little Fills during bass part

Bend it around pretty good
------------------------------
------------------------------
------------------------------
------------------------------
------------------------------
-3b---------------------------

w/ wah
-------------
--6--6--6----
--7--7--7----
-------------
-------------
-------------


Verse
------------------------------
------------------------------
------------------------------
-0--000-0--3------3-3--3---5--
-0--000-0--3------3-3--3---5--
-0--000-0--3------3-3--3---5--
 ----PM-----

[ Tab from: http://www.guitartabs.cc/tabs/f/fuel/down_tab.html ]
Prechorus - 2nd part is played pretty fast, 
no timing is in this tab

"You Shoved Me"  PM
 ------------- 
 -------------
 -------------
 -0----0----0-
 -0----0----0-
 -0----0----0-

 -----------------------------------
 -----------------------------------
 -----------------------------------
 -0---3-5-6-5--3--0-0-3--5-6-5-3-0--
 -0---3-5-6-5--3--0-0-3--5-6-5-3-0--
 -0---3-5-6-5--3--0-0-3--5-6-5-3-0--

Chorus      
-----------------------------
-----------------------------
-3--------------------3------
-3---3---5--7---0-----3---3--
-1---3---5--7---0-----1---3--
-----3---5--7---0---------3--
                ^
                ^Palm Mute ths chord on and off when you play it


Format:
Bass Intro w/ fills over it
Verse 
Prechorus 
Chorus
Verse 
Prechorus
Chorus 
Solo (i'll work on it)
Prechorus
Chorus x 2
Prechorus 
Comments