Fuck Im Dead - Toilet Tantalizers Chords & Tabs

 

Toilet Tantalizers Chords & Tabs

Fuck Im Dead Chords & Tabs

Version: 1 Type: Tab 0 ratings
1 star 2 stars 3 stars 4 stars 5 stars
comments

Toilet Tantalizers Tab

   
Band: Fuck...I'm Dead
Song: Fucking The Foetus
Album: Bring On The Dead

Transcribed by: Andrew Collyer
Contact: the_hauntedcrown@hotmail.com

Copyright  No Escape Records, 2001

TUNING: B F# B E G# C#

. - palm mute / - slide up to
\ - slide down to ~ - vibrato
h - hammer on p - pull off
, - slight palm mute () - ghost note, sustained note
" - tremolo note <> - Trill
n - natural harmonic

Suffixes for bend
f - full bend h - half bend
ph - pinched harmonic q - quarter bend
t - tap bend * - see comment
^ - Hold bend r - release bend
x - Stuccatto ~ - vibrato bend

Riff 1a
------------------------------|
------------------------------|
------------------------------|
------------------------------|
-1-0--2-1-0--2-1-0--2-1-0--2--|
-3-2--4-3-2--4-3-2--4-3-2--4--|

Riff 1b
------------------------------|
------------------------------|
------------------------------|
------------------------------|
-2-0--3-2-0--3-2-0--3-2-0--3--|
-2-0--3-2-0--3-2-0--3-2-0--3--|

Riff 1a x 1
Riff 1b x 1
[ Tab from: http://www.guitartabs.cc/tabs/f/fuck_im_dead/toilet_tantalizers_tab.html ]
Riff 2
------------------------------------------------------------------|
------------------------------------------------------------------|
------------------------------------------------------------------|
---------6666----------------------------5555--------5555---------|
-----4444----7777444466667777333322223333----22223333----22223ph--|
-2222-------------------------------------------------------------|
 ............................................................

Riff 3
--------------------------------------|
--------------------------------------|
--------------------------------------|
------6"---5"-----------6"---5"---8"--|
-4"---4"---3"------4"---4"---3"---6"--|
-2"----------------2"-----------------|

Fill 1
-77779910109988887777--|
-----------------------|
-----------------------|
-----------------------|
-----------------------|
-----------------------|

Riff 4 (play 4 times)
--------------------------------------|
--------------------------------------|
--------------------------------------|
------7"----------------6"---5"---8"--|
-1"---5"---7"------4"---4"---3"---6"--|
-3"--------7"------2"-----------------|

Weird guitar fade to bass guitar kind of thing

Riff 5 (play 8 times)
--------------------------------------|
--------------------------------------|
--------------------------------------|
-6-----------7------4-4-3-3-----3ph---|
-4---------3-5~-----5-5-4-4-----------|
---0-1-3-5------0-1---------1-3-------|
   . . . . .    . .         . .
Comments