Fu Manchu - Wiz Kid Chords & Tabs

 

Wiz Kid Chords & Tabs

Fu Manchu Chords & Tabs

Version: 3 Type: Tab 0 ratings
1 star 2 stars 3 stars 4 stars 5 stars
comments

Wiz Kid Tab

Artist:		Fu Manchu	
Song:		Wiz Kid	
Album:		California Crossing (track 6)
Tuning: 	Down One Step
Tabbed By:	denabob


Intro:
|-------------------------------------------------------------|
|-------------------------------------------------------------|
|--------3-(5)---------5-(5)-5-5-5-5-5-5-5-5-5-5-5-5-5-5-5-5--|
|-7-(7)--5-(5)--7-(7)--5-(5)-5-5-5-5-5-5-5-5-5-5-5-5-5-5-5-5--|
|-7-(7)--3-(3)--7-(7)--3-(3)-3-3-3-3-3-3-3-3-3-3-3-3-3-3-3-3--|
|-5-(5)---------5-(5)-----------------------------------------|


Riff 1 (verse):
|-----------------------------------------------------|
|-----------------------------------------------------|
|------5\-X-X--------------------7\-X-X----------5~~~-|
|-7-7--5\-X-X---------------7-7--7\-X-X---0-5-7-------|
|-7-7--3\-X-X--------3------7-7--5\-X-X---------------|
|-5-5----------0-3-5---5----5-5-----------------------|


Chorus:
|---------------------------------|
|---------------------------------|
|-----------------------5-5-------|
|-7-7-7-7-7-7-7-7---5-5-5-5-5-----|
|-7-7-7-7-7-7-7-7---5-5-3-3-5-----|
|-5-5-5-5-5-5-5-5---3-3-----3-----|


Bridge:
|--------------------------------------|
|--------------------------------------|
|----------5-5--5---7-7--7-------------|
|-7-7--7---5-5--5---7-7--7---7-7--7----|
|-7-7--7---3-3--3---5-5--5---7-7--7----|
|-5-5--5---------------------5-5--5----|

[ Tab from: http://www.guitartabs.cc/tabs/f/fu_manchu/wiz_kid_tab_ver_3.html ]
Riff 2 ("Watch him...arrive"): 
|-------------------------------------|
|-------------------------------------|
|-------------------------------------|
|-7-7------7-7------------------------|
|-7-7------7-7---------3--------------|
|-5-5------5-5-----3-5---5------------|


Riff 3:                              4th time only      
|----------------------------------|--------------------------------|
|----------------------------------|--------------------------------|
|----------------------------------|-5-5-5-5-5-5-5-5-5-5-5-5-5-5-5--|
|-7-7-7-7--7-----------------------|-5-5-5-5-5-5-5-5-5-5-5-5-5-5-5--|
|-7-7-7-7--7------------------3----|-3-3-3-3-3-3-3-3-3-3-3-3-3-3-3--|
|-5-5-5-5--5--0--3-5-5-5--3-5---5--|--------------------------------|


Riff 4:
|----------------------------------------------------|
|-10-10-10-10---13-13-13-13---15-15-15-15---8-8-8-8--|
|-9--9--9--9----12-12-12-12---14-14-14-14---7-7-7-7--|
|-7--7--7--7----10-10-10-10---12-12-12-12---5-5-5-5--|
|----------------------------------------------------|
|----------------------------------------------------|


End:
|-------------------------------------|
|-------------------------------------|
|------5\-x-x--------------9-9-9-9\---|
|-7-7--5\-X-X--------------9-9-9-9\---|
|-7-7--3\-X-X--------3-----7-7-7-7\---|
|-5-5----------0-3-5---5--------------|


Song Structure:
Intro  (1X)
Riff 1 (6X)
Chorus (4X)
Riff 1 (6X)
Chorus (4X)
Bridge (2X)
Riff 2 (4X)
Riff 3 (4X)
Riff 4 (1X)
chorus (8X)
End    (1X)
Comments