Fu Manchu - Trackside Hoax Chords & Tabs

 

Trackside Hoax Chords & Tabs

Fu Manchu Chords & Tabs

Version: 1 Type: Tab 0 ratings
1 star 2 stars 3 stars 4 stars 5 stars
comments

Trackside Hoax Tab

   
"Trackside Hoax" by Fu Manchu.

 From the Album "The Action is go".

 Tabbed by SETCH. Brought to you by stickyhomer.

 Tuning:-all strings down a full step.

 eg(DGCFAD)

 I tabbed the first solo...figure the rest out your self.  They are mostly 
 simple pentatonic based.

 Riff 1. 
 
 d|------------------------------------------------------------------------|
 A|------------------------------------------------------------------------|
 F|------------------------------------------------------------------------|
 C|--------7-----------------7-------------7-9-7---------------------------| 
 G|--------5-a x3 then b)
[ Tab from: http://www.guitartabs.cc/tabs/f/fu_manchu/trackside_hoax_tab.html ]
    a.                                      b.
 d|-----------------------------------------|------------------------------|
 A|-----------------------------------------|------------------------------|
 F|-----------------------------------------|------------------------------|
 C|-----------------------------------------|------------------------------| 
 G|-8--5---------------8--5---11-11-10------|-8--5-------------11-10-8-----|
 D|-6sl3--x-x-x-x-x-x--6sl3-x-9--9--8-------|-6sl3-x-x-x-x-x-x-9--8--6-----|

 Riff 3.

 d|------------------------------------------------------------------------|
 A|------------------------------------------------------------------------|
 F|------------------------------------------------------------------------|
 C|------------------------------------------------------------------------| 
 G|-5--7-----------12--10--10-12-------5--7-----------12--10--10-12--------|
 D|-3sl5-x-x-x-x-x-10sl8-x-8sl10-----x-3sl5-x-x-x-x-x-10sl8-x-8sl10--x-----|
  
 Riff 4.

 d|------------------------------------------------------------------------|
 A|------------------------------------------------------------------------|
 F|------------------------------------------------------------------------|
 C|------------------------------------------------------------------------| 
 G|-7-7-7-7-7-7-7---10---12-----------7-7-7-7-7-7-7---10---12--------------|
 D|-5-5-5-5-5-5-5---8----10-----------5-5-5-5-5-5-5---8----10--------------|
Comments