Fu Manchu - Squash That Fly Chords & Tabs

 

Squash That Fly Chords & Tabs

Fu Manchu Chords & Tabs

Version: 3 Type: Tab 0 ratings
1 star 2 stars 3 stars 4 stars 5 stars
comments

Squash That Fly Tab

Artist:		Fu Manchu
Song:  		Squash That Fly
Album:  	California Crossing (track 7)
Tuning: 	Down One Step
Tabbed by:	denabob


Intro:
|------------------------|  
|------------------------|  
|------------------------|  
|--3---------------------| 
|----5-3-0-3-0-----------|  
|--------------5-3~~~~---|

  
Rhythm Figure 1:
|---------------------------------------------------------------------|  
|---------------------------------------------------------------------|  
|-----9-----9-----9-----9-----9\-----5-5-----5-5~-----7-7-----7-7~----|  
|-----9-----9-----9-----9-----9\-----5-5-5-5-5-5~-----7-7-7-7-7-7~----| 
|-----7-----7-----7-----7-----7\-----3-3-5-5-3-3~-----5-5-7-7-5-5~----|  
|-0-0---0-0---0-0---0-0---0-0------------3-3--------------5-5---------|


Chorus:
|------------------------------------------------------|  
|------------------------------------------------------|  
|---------5-5---------5-5----------5-5----7---5-5------|  
|-2-2-2-2-5-5-5-5-5-5-5-5--2-2-2-2-5-5--5-7-7-5-5------| 
|-2-2-2-2-3-3-5-5-5-5-3-3--2-2-2-2-3-3--5-5-7-3-3------|  
|-0-0-0-0-----3-3-3-3------0-0-0-0------3---5----------|

[ Tab from: http://www.guitartabs.cc/tabs/f/fu_manchu/squash_that_fly_tab_ver_3.html ]
Rhythm Figure 2:
|-------------------------------------------------------------------|  
|-------------------------------------------------------------------|  
|-x-9-x-9-9-x-x-9-9--x-9-7-7\------5-5-----5-5~-----7-7-----7-7~----| 
|-x-9-x-9-9-x-x-9-9--x-9-7-7\------5-5-5-5-5-5~-----7-7-7-7-7-7~----| 
|-x-7-x-7-7-x-x-7-7--x-7-5-5\------3-3-5-5-3-3~-----5-5-7-7-5-5~----|  
|----------------------------------------3-3--------------5-5-------|


Rhythm Figure 3 (Bridge and Under Solo):
|--------------------------|  
|--------------------------|  
|-9-9--7-7-9--5-5-5-7-7----|   
|-9-9--7-7-9--5-5-5-7-7----| 
|-7-7--5-5-7--3-3-3-5-5----|  
|--------------------------|
 

Outro:
|-----------------------------------------|  
|-----------------------------------------|  
|------------------------9-9--7-9-9\------|  
|--3---------------------9-9--7-9-9\------| 
|----5-3-0-3-0-----------7-7--5-7-7\------|  
|--------------5-3~~~~--------------------|



Song Structure:
Intro (1X)
Rhythm Figure 1 (6X)
Chorus (2X)
Rhythm Figure 2 (4X)
Chorus (2X)
Rhythm Figure 3 (8X)
Rhythm Figure 1 (1X)
Chorus (4X)
Outro (1X)




      
Comments