Fryderyk Chopin - Prelude Op 28 No 7 Chords & Tabs

 

Prelude Op 28 No 7 Chords & Tabs

Fryderyk Chopin Chords & Tabs

Version: 1 Type: Tab

Prelude Op 28 No 7 Tab

   
-----------------------------------------------------------------------------
	          Prelude Op. 28 No. 7 - Fryderyk Chopin
-----------------------------------------------------------------------------
Tabbed by: Travis Wong
Email: travis_wong@hotmail.com

Tuning: EADGBe

e|-----|-------------------|----------7--|--4--5---10---10--|--10-----------|
B|-----|--3s7---8----5--5--|--5-------8--|--6--7---7----7---|--7--------7---|
G|--2--|-------------6--6--|--6----------|------------------|---------------|
D|-----|-------------5--5--|--5----------|------------------|------0----7---|
A|-----|----0--------------|--0----0-----|------------------|---------------|
E|-----|-------------------|-------------|--0---------------|--0------------|
[ Tab from: http://www.guitartabs.cc/tabs/f/fryderyk_chopin/prelude_op_28_no_7_tab.html ]
e|----------------|-------------|---------2---2--|--2-----------------------|
B|--4---5--8---8--|--8-------2--|--2---3--3---3--|--3--------3s7------------|
G|----------------|----------0--|--0------2---2--|--2-----------------------|
D|--4---5--9---9--|--9----------|------4---------|-------0------------------|
A|--0-------------|--0---0------|----------------|--------------------------|
E|----------------|-------------|--0-------------|--0-----------------------|

e|-----------------|-------------7--|--4---5---14---14--|--14---------------|
B|--7---8---5---5--|--5----------8--|--6---7------------|-----0-------7-----|
G|----------6---6--|--6-------------|-------------------|-------------8-----|
D|----------5---5--|--5-------------|----------0----12--|-----13------9-----|
A|--0--------------|--0-------------|-------------------|-------------------|
E|-----------------|-------7--------|--0----------------|-----9-------------|

e|----------7---7--|--7-------------|--------------10---|--10---------------|
B|--7---8---8---8--|--8-------2-----|--5---3---3----7---|--7----------------|
G|--8---9---9---7--|--6-------0-----|-------------------|-------------------|
D|-----------------|----------------|--5---4---4---0----|--0----------------|
A|--7--------------|------0---------|-------------------|-------------------|
E|-----------------|----------------|--0----------------|--0----------------|

| /  slide up
| \  slide down
| h  hammer-on
| p  pull-off
| ~  vibrato
| +  harmonic
| x  Mute note
=============================================================================