Frusciante John - Various Chords & Tabs

 

Various Chords & Tabs

Frusciante John Chords & Tabs

Version: 1 Type: Tab 0 ratings
1 star 2 stars 3 stars 4 stars 5 stars
comments

Various Tab

   
##################################################################################
# This file is the author's own work and represents their interpretation of the  #
# song. You may only use this file for private study, scholarship, or research.  #
##################################################################################

Artist: John Frusciante
Song: A Firm Kick
Album: Inside Of Emptiness
Tabbed by: Merijn van Aartrijk

Normal EADGBe tuning

Chords:

     A   E   B   D  F#m  C#  G
e ---5---7---7---5---9---9---10---
B ---5---9---7---7---10--9---12---
G ---6---9---8---7---11--10--12---
D ---7---9---9---7---11--11--12---
A ---7---7---9---5---9---11--10---
E ---5---7---7---5---9---9---10---


These are the basic chords, play the variations along with the track...

Hopefully I'll have some time to wright down some other great songs of this genius.



**********************************************************************************************************

*********************************************************************************************************


This is "going inside" from the album "to record water for only ten days"
NOT easy to play

Gm           C          D#          C            D#          C
E|---3----3---|---3----3---|-------------------------|------------------------|
B|---3----3---|---5----5---|-------------------------|------------------------|
G|---3----3---|---5----5---|-----10-------------7----|-----10-------------7---|
D|---5----5---|---5----5---|--8------8-------5-----5-|--8------8-------5-----5|
A|---5----5---|---3----3---|6-------------3----------|6-------------3---------|
E|---3----3---|---X----X---|-------------------------|------------------------|



**************************************************************************************************************

**************************************************************************************************************


Artist- John Frusciante
Song- The Days Have Turned
Album- The Will To Death

Hey. This is John’s (for lack of a better word) unplugged album. 
The songs are much more simple. In a recent letter, addressed to his 
fans, that Frusciante has posted on his website, he stated this was 
one of his favorites. By the time I read this I had just learned the 
song and immediately came to post it on this site.

Bar = bar chord (alternate chording)
^=bend
/= slide
h= hammer on 
p= pull off
x= muted or scratched
~ = Tremolo

!!!!!!During the second chorus John will occasionally hammer on the 
5th  fret on the b string and then hit the 4th fret on the g string.  
It gives it that extra “Frusciante touch”, but if your just covering 
its not to big a deal!!!!!!!

(The chordings used are as shown below, however, I’m not showing 
the plucking pattern. I’ll leave that up to you.)
Chords:

     Bm     A    Em       G     Dsus4     D   
E----4------0-----0-------3-------3-------2--------||
B----5------3-----0-------3-------3-------3--------||
G----6------3-----0-------0-------2-------2--------||
D----6------3-----2-------0-------0-------0--------||
A----4------0-----2-------2------------------------||
E-----------------0-------3------------------------||


Verse:
    Bm                  A                 Em
=============================================


Chorus:
[ Tab from: http://www.guitartabs.cc/tabs/f/frusciante_john/various_tab.html ]
    G          Dsus4/D           A         Bm
   
    G          Dsus4/D           A         Bm
    
    G          Dsus4/D           A         Bm
         Well I know now                It was the first time
    G          Dsus4/D           A         Bm
         That was fun now                   From life I resign
    G          Dsus4/D           A         Bm
         When I feel I’ve got problems how wrong I am
    G          Dsus4/D           A         Bm 
         I’m awaiting life as another man     don’t crowd me
    G          Dsus4/D           A         Bm
    
    G          Dsus4            A…..


This song is really fast pace and only two minutes long, so 
that’s why the chords are repeated so many times.

Do enjoy,
Madman Across the water


***************************************************************************************************************

***************************************************************************************************************


The Will To Death solo

there are two guitars on this solo.  one follows the tab below 
and the other just picks around the C#m penatonic scale.  guitar
two is easy to figure out

e-----------------------------------------------------
b--12--10--9----------12--10--9--------9--10--9-------
g-------------9------------------9--11------------9h11     repeat twice
d----------------9-9------------------------------9h11
a-----------------------------------------------------
e-----------------------------------------------------



e------9-----------------9-----------------9---------------
b--12-----12--10--9--12-----12--10--9--12-----12--10--9--10
g----------------------------------------------------------
d----------------------------------------------------------
a----------------------------------------------------------
e----------------------------------------------------------


e-------------------------------------------------
b--9--10--9---------9--10--9---------9------------
g------------11--9------------11--9-----9-----9h11
d------------------------------------------11-----
a-------------------------------------------------
e-------------------------------------------------





thats pretty much it


tabbed by the rob



****************************************************************************************************************

****************************************************************************************************************



Author/Artist: John Frusciante
Title: Wind Up Space
Transcribed by Thatyou

Verse:
-|----------------------------------------------------------------------------
-|----------------------------------------------------------------------------
-|------4----------------------4----------------------------------------------
-|---------5----------------------5-------------------------------------------
-|--7---------7-----5h7----7--------7-----------------------------------------
-|----------------------------------------------------------------------------
                                                                              
Chorus:
-|----------------------------------------------------------------------------
-|-7-------5------------------------------------------------------------------
-|-7-------4------------------------------------------------------------------
-|-7-------5------------------------------------------------------------------
-|-9-------3------------------------------------------------------------------
-|----------------------------------------------------------------------------



Comments