Frusciante John - Usually Just A T Shirt Chords & Tabs

 

Usually Just A T Shirt Chords & Tabs

Frusciante John Chords & Tabs

Version: 1 Type: Tab 0 ratings
1 star 2 stars 3 stars 4 stars 5 stars
comments

Usually Just A T Shirt Tab

##################################################################################
# This file is the author's own work and represents their interpretation of the  #
# song. You may only use this file for private study, scholarship, or research.  #
##################################################################################

Subject: Usually just a t – shirt #3 (off the map live) 
Artist : John Frusciante
Tabbed by: T. Muirden
VERSE 1:
[ Tab from: http://www.guitartabs.cc/tabs/f/frusciante_john/usually_just_a_t_shirt_tab.html ]
E |-----------------------------------------------------------| 
B |---5------------8-----------3-------3----------------------| 
G |----5------------9-----------4---4-------------------------|
D |-----5------------9-----------5----5-----------------------| 
A |-3-----------7------------5-----5--------------------------|
E |-----------------------------------------------------------|
  A dove is a glove…
E |-----------------------------------------------------------| 
B |---5------------8-------3----------------------------------| 
G |----5------------9------4----------------------------------|
D |-----5------------9-----5----------------------------------| 
A |-3-----------7----------5----------------------------------|
E |-----------------------------------------------------------|
   Have any part of the…
 
E |-----------------------------------------------------------| 
B |---5------------8-----------3-------3----------------------| 
G |----5------------9-----------4---4-------------------------|
D |-----5------------9-----------5----5-----------------------| 
A |-3-----------7------------5-----5--------------------------|
E |-----------------------------------------------------------|
Down… I’m sick of the…
E |--------------------------------------------------| 
B |---5------------8-------3-3-x-3-3-3--3------------| 
G |----5------------9------4-4-x-4-4-4--4------------|
D |-----5------------9-----5-5-x-5-5-5--5------------| 
A |-3-----------7----------5-5-x-5-5-5--5------------|
E |--------------------------------------------------|
The sky…
E |---------------------------------------------| 
B |--6-6--3-3-3--6-6--3-3-3--6-6--1-1--3--------| 
G |--7-7--4-4-4--7-7--4-4-4--7-7--2-2--4--------|
D |--8-8--5-5-5--8-8--5-5-5--8-8--3-3--5--------| 
A |--8-8--5-5-5--8-8--5-5-5--8-8--3-3--5--------|
E |---------------------------------------------|
So load that it would ring…
E |-----------------------------------------------------------| 
B |---5------------8-----------3-------3----------------------| 
G |----5------------9-----------4---4-------------------------|
D |-----5------------9-----------5----5-----------------------| 
A |-3-----------7------------5-----5--------------------------|
E |-----------------------------------------------------------|
You’re pushing me away…
E |---------------------------------------------------------| 
B |---5------------8-------3-3-x-3-3------------------------| 
G |----5------------9------4-4-x-4-4------------------------|
D |-----5------------9-----5-5-x-5-5------------------------| 
A |-3-----------7----------5-5-x-5-5------------------------|
E |---------------------------------------------------------|
Comments