Frusciante John - Unchanging Chords & Tabs

 

Unchanging Chords & Tabs

Frusciante John Chords & Tabs

Version: 1 Type: Chords 0 ratings
1 star 2 stars 3 stars 4 stars 5 stars
comments

Unchanging Chords

   
artist: John Frusciante
song: Unchanging
album: The Will To Death


intro riff: B F# G#m (hold the last chord and strum it muted)

verse: B F# G#m E 
       B E B

chorus: D#m G#m E B F# G#m
        D#m G#m E G#m B F# G#m 

outro riff: B F# E G#m

after the third go around of the outro riff, play: G#m B F# G#m twice

outro solo: 
[ Tab from: http://www.guitartabs.cc/tabs/f/frusciante_john/unchanging_crd.html ]
e--------11h12p11--9/11-------
b-----------------------11-12-
g-----------------------------
d-----------------------------
a-----------------------------
e------------------------------

e--------11-12-11--9/11--------
b------------------------9-----
g------------------------------
d------------------------------
a------------------------------
e------------------------------

e--------11h12p11h12/14-12-11------
b-----------------------------11-12
g----------------------------------
d----------------------------------
a----------------------------------
e----------------------------------

e-------16-14-------16-14-------16-14------
b-------------16-16-------16-16-------16-16-
g-------------------------------------------
d-------------------------------------------
a-------------------------------------------   repeat 4x
e-------------------------------------------


enjoy!
Comments