Frusciante John - Time Tonight Chords & Tabs

 

Time Tonight Chords & Tabs

Frusciante John Chords & Tabs

Version: 1 Type: Tab 1 rating
1 star 2 stars 3 stars 4 stars 5 stars
comments

Time Tonight Tab

   
Verse
    
    G#m              B      F#       G#m              E       B
  
    Gtr I
||-----------------|---------------|----------------|-----------------|
||o------4------4--|-----7------2--|------4------4--|-7-5-------------|
||-------4------4--|-----8------3--|------4------4--|-----4---9-8-----|
||-------6--(6)----|-----9------4--|------6--(6)----|-------4-----9---|
||o----6----(6)----|---9------4----|----6----(6)----|---------------9-|
||--4--------4-----|-7------2------|-4--------4-----|-0-------7-------|


  G#m              B      F#       G#m              E       B
|----------------|---------------|----------------|-----------------|
|------4------4--|-----7------2--|------4------4--|-----------------|
|------4------4--|-----8------3--|------4------4--|-------1-4-3-----|
|------6--(6)----|-----9------4--|------6--(6)----|-----2-------4---|
|----6----(6)----|---9------4----|----6----(6)----|---2-----2-----4-|
|-4--------4-----|-7------2------|-4--------4-----|-0---------------|


 Chorus
                                                       1.
  D#m             G#m     E             B               G#m     E
  Gtr II
|---------------|-------4----------14-|---------------|-------4----------14-|
|-------7-------|-----4---------12----|-------7-------|-----4---------12----|
|-----8----8----|---4--------11-------|-----8----8----|---4--------11-------|
|---8--------8--|-6-------------------|---9--------9--|-6-------------------|
|-6-------------|---------14----------|-9-------------|---------14----------|
|---------------|---------------------|---------------|---------------------|
|
| Gtr I
|---------------|----------------7----|---------------|----------------7----|
|-------7----7--|-----4----------9----|------------7--|-----4----------9----|
|-----8------8--|-----4----------9----|-------8----8--|-----4----------9----|
|---8--------8--|-----6-------9-------|-----9------9--|-----6-------9-------|
|-6--------6----|---6------7----------|---9------9----|---6------7----------|
|---------------|-4-------------------|-7-------------|-4-------------------|


  G#m         F#          Emaj7
|----------11---------9-|----------16----------||
|-----------------------|-------16-----16-----o||
|-------13---------11---|----16----------------||
|----13---------11------|-18--------------18---||
|-11----------9---------|---------------------o||
|-----------------------|----------------------||
|
|-----------------------|----------------------||
|-------12---------11---|-^9-------^9-----^9--o||
|-------13---------11---|-^8-------^8-----^8---||
|----13-13------11-11---|-^9-------^9-----^9---||
|-11----------9---------|-^7-------^7-----^7--o||
|-----------------------|----------------------||

[ Tab from: http://www.guitartabs.cc/tabs/f/frusciante_john/time_tonight_tab.html ]
  2.
  G#m     C#m           E           F#m
|-------4----------12-|----------16----------18-|
|-----4---------14----|-------17----------19----|
|---4--------13-------|----16----------18-------|
|-6-------11----------|-14----------16----------|
|---------------------|-------------------------|
|---------------------|-------------------------|
|
|----------------4----|-------------------------|
|-----4----------5----|--------9----------11----|
|-----4----------6----|--------9----------11----|
|-----6-------6-------|-----9--9-------11-------|
|---6------4----------|--7-----------9----------|
|-4-------------------|-------------------------|


 Interlude
  G#m
|-16-------21--19-----|---------------19-18-------|-------------23-28---|
|-------21---------21-|--21-----21----------19----|----------24---------|
|----20---------------|------20----20----------18-|-------25------------|
|-18------------------|---------------------------|----25---------------|
|---------------------|---------------------------|-23------------------|
|---------------------|---------------------------|---------------------|
|
|---------------------|---------------------------|---------------------|
|----------14--12-----|---------------12-11-------|----------14----12---|
|-------13-13--13--13-|-(13)----13----------11----|-------13------------|
|----13---------------|------13----13----------11-|----13---------------|
|-11------------------|---------------------------|-11------------------|
|---------------------|---------------------------|---------------------|


   Bridge
    C#m    G#m      E      D#7      C#m    G#m      E      F#
    Gtr I
||------4---------|---------------|-----4---------|-----------------||
||o-----5------4--|-----9---------|-----5------4--|-----9------2---o||
||------6------4--|-----9------6--|-----6------4--|-----9------3----||
||----6--------6--|---9-9----5-5--|---6--------6--|---9-9------4----||
||o-4--------6----|-7------6------|-4--------6----|-7--------4-----o||
||---------4------|---------------|--------4------|--------2--------||


  C#m    G#m      E      F#
|-----4---------|---------------|
|-----5------4--|-----9------2--|
|-----6------4--|-----9------3--|
|---6--------6--|---9-9------4--|
|-4--------6----|-7--------4----|
|--------4------|--------2------|


  G#m    E        B      F#m      G#m    E        B      F#m
|---------------|---------------|---------------|-----------------|
|-----4---------|-----4------2--|-----4------9--|-------------11--|
|-----4------1--|-----4------3--|-----4------9--|-----8-------11--|
|-----6------2--|---4-4------4--|-----6----9-9--|-----9----11-----|
|---6------2-2--|-2--------4----|---6----7------|---9-9--9--------|
|-4------0------|--------2------|-4-------------|-7---------------|


   Outro
    G#m    E        B      F#       G#m    E        B      F#           G#m
                                                                     6x
||----------------|---------------|---------------|------------------||-^4----*|
||o-----4---------|-----4------2--|-----4------9--|-------------11--o||-^4----*|
||------4------1--|-----4------3--|-----4------9--|-----8-------11---||-^4----*|
||------6------2--|---4-4------4--|-----6----9-9--|-----9----11------||-^6----*|
||o---6------2-2--|-2--------4----|---6----7------|---9-9--9--------o||-^6----*|
||--4------0------|--------2------|-4-------------|-7----------------||-^4----*|

Comments