Frusciante John - This Cold Chords & Tabs

 

This Cold Chords & Tabs

Frusciante John Chords & Tabs

Version: 1 Type: Tab 0 ratings
1 star 2 stars 3 stars 4 stars 5 stars
comments

This Cold Tab

   
##################################################################################
# This file is the author's own work and represents their interpretation of the  #
# song. You may only use this file for private study, scholarship, or research.  #
##################################################################################

Artist- John Frusciante
Song- This Cold
Album- Shadows Collide With People


^=bend
/= slide
h= hammer on 
p= pull off
x= muted or scratched
~ = Tremolo
Chords used by gtr. 1:
       Am        F       C       G     Dm    G6
E-----0-------1------0------3------1-----0---------------------------------------------------
B-----1-------1------1------3------3-----0---------------------------------------------------
G-----2-------2----- 0------4------2-----0---------------------------------------------------
D-----2-------3------2------5------0-----0---------------------------------------------------
A---- 0-------3------3------5------x-----0---------------------------------------------------
E-----0-------1------0------3------x-----0---------------------------------------------------

Intro:

Gtr. 1 Plays these chords (strumming pattern not shown) 

Am                          F                       C                       G

Am                          F                       C                       G
[ Tab from: http://www.guitartabs.cc/tabs/f/frusciante_john/this_cold_tab.html ]
Gtr. 2  enters at third measure  and plays this over the same chords. (distortion is used, but it sounds good without, too.)
 Am                         F                       C                       G
E---------------------------------------15---------------------12-----------------
B----------12---13-------------/17--------15-----12h13----------13----------------
G----14----------------10---------------------------------------------------------
D---------------------------------------------------------------------------------
A---- ----------------------------------------------------------------------------
E---------------------------------------------------------------------------------

     Am                         F                    C                    G
E-------------------------------------------------------------------------------------
B-----------12--13--------------------------------------------------------------------
G-----14--------------10-------------/9------------/5b--------------------------------
D-------------------------------------------------------------------------------------
A---- --------------------------------------------------------------------------------
E-------------------------------------------------------------------------------------

Verse
Chorus




Solo:
      F             G6            Am             F             G6              Am
E-------------------------------------------------------------------------------------
B-----10---8---10------------------10------8------10----------------------------------
G-------------------- ~9~ -------------------------------------- ~9~ -----------------
D-------------------------------------------------------------------------------------
A---- --------------------------------------------------------------------------------
E-------------------------------------------------------------------------------------

      F             G6            Am             F             G6              Am
E-----------------------------------------------------------------------------------
B-----10---8---10--------------------8---------6-5----------------------------------
G-------------------- ~9~ -----b9b/-----5b----------5/4B~~~~~~~---------------------
D-----------------------------------------------------------------------------------
A-----------------------------------------------------------------------------------
E-----------------------------------------------------------------------------------



Do enjoy.
Madman across the wate

Comments