Frusciante John - The Will To Death Chords & Tabs

 

The Will To Death Chords & Tabs

Frusciante John Chords & Tabs

Version: 1 Type: Tab 0 ratings
1 star 2 stars 3 stars 4 stars 5 stars
comments

The Will To Death Tab

   
standard tuning

e
b
g
d
a
e

verse
  e(7th)    b(7th)       F#m(2nd)          e(open)


chorus
F#m(9th)      e(7th)   b(7th)


Solo

there are two guitars on this solo.  one follows the tab below 
and the other just picks around the C#m penatonic scale.  guitar
two is easy to figure out
[ Tab from: http://www.guitartabs.cc/tabs/f/frusciante_john/the_will_to_death_tab.html ]
e-----------------------------------------------------
b--12--10--9----------12--10--9--------9--10--9-------
g-------------9------------------9--11------------9h11     repeat twice
d----------------9-9------------------------------9h11
a-----------------------------------------------------
e-----------------------------------------------------



e------9-----------------9-----------------9---------------
b--12-----12--10--9--12-----12--10--9--12-----12--10--9--10
g----------------------------------------------------------
d----------------------------------------------------------
a----------------------------------------------------------
e----------------------------------------------------------


e-------------------------------------------------
b--9--10--9---------9--10--9---------9------------
g------------11--9------------11--9-----9-----9h11
d------------------------------------------11-----
a-------------------------------------------------
e-------------------------------------------------





thats pretty much it


tabbed by the rob			
Comments