Frusciante John - Song To Sing When Im Lonely Intro Riff Chords & Tabs

 

Song To Sing When Im Lonely Intro Riff Chords & Tabs

Frusciante John Chords & Tabs

Version: 1 Type: Tab 0 ratings
1 star 2 stars 3 stars 4 stars 5 stars
comments

Song To Sing When Im Lonely Intro Riff Tab

   
##################################################################################
# This file is the author's own work and represents their interpretation of the  #
# song. You may only use this file for private study, scholarship, or research.  #
##################################################################################

Artist- John Frusciante
Song- Song to Sing When I’m Lonely
Album- Shadows Collide With People


I typed this up before I realized someone had already posted this 
song, so I’m putting it up anyway. I think Frusciante is the best 
guitarist around and he is a spectacular musician as well. 
I encourage everyone to post more of his solo work. It’s a bit 
rusty because it’s strictly from my memory, but I think, overall, 
it’s pretty accurate. Do enjoy.
Sincerely,
Madman


X= mute

Intro: Plays same notes as synthesizer, or keyboard. Which ever you 
prefer works.
Gtr.1 Electric; NOT distorted, but with reverb. 
E-----------------------------------------------------------6-------------------------------------------
B----------------------7--------------------------------7------7-----------------------------9---------
G----------------8--------8------------------------8--------------8---------------------10------10----
D----------9------------------9-----------------------------------------------------11--------------11-
A--------------------------------------------6------------------------------------------------------------
E---7-------------------------------------------------------------------------9---------------------------

E---------------4--------------4----------------4--------------------------------------------------------
B-------------------4---------------4---------------4----------------------------------------------------
G---------4--------------4--------------4---------------4-----------------------------------------------
D---------------------------------------------------------------------------------------------------------
A---------------------------------------------------------------------------------------------------------
E-----4-------------------------------------------------------------------------------------------------


[ Tab from: http://www.guitartabs.cc/tabs/f/frusciante_john/song_to_sing_when_im_lonely_intro_riff_tab.html ]
Verse:
Gtr. 2 Acoustic 
Chords….

     B         D#m         C           G#m       
E----7---------6------ ---9------ -----4------
B----7---------7------ ---9------ -----4------
G----8---------8----- ----10------ ----4------
D----9---------8---- -----11----- -----6------
A----9---------6---- -----11----- -----6------
E----7-------------- -----9------ -----4------


Chorus:
Gtr.2 Chords ….
      F#        C#        B5
E----2--------X------
B----2--------3------
G----3--------3------
D----4--------3------9x
A----4--------4------9x
E----2---------------7x



Riff **(Gtr. 1 Comes in over gtr.2 at third line of chorus)
E-----------------------------------------------9--------------9----------------11-------------11---------
B----11-----------------11------------------------9--------------9-----------------12------------12-------
G--------11-------------------11--------------------10------------10-----------------13------------13-----
D------------11---------------------11------------------11------------11-----------------13-------- --13--
A------------------9---------------------9---------------------------------------------------11 --------11
E------------------------x-----------------------x----------------x---------------------------------------

E---------------------------------------------------------------------------------------------------------
B-----11--------------11----------------------------------------------------------------------------------
G--------11---------------11------------------------------------------------------------------------------
D-------------11---------------11-------------------------------------------------------------------------
A------------------9----------------9---------------------------------------------------------------------
E--------------------------------------------------------------------------------------------------------



I neglected to put in one of gtr. 2’s riffs in because I couldn’t 
figure it out. However, it’s a small part of the song, and you can 
come up with your own version. 
Feel free to submit all modifications.

Later, 
Madman across the water.


Comments