Frusciante John - Second Walk Chords & Tabs

 

Second Walk Chords & Tabs

Frusciante John Chords & Tabs

Version: 1 Type: Tab 0 ratings
1 star 2 stars 3 stars 4 stars 5 stars
comments

Second Walk Tab

Song: Second Walk
Artist: John Frusciante
Album: When Shadows Collide With People

Tuning: Standard

(14): means play the note you bended on the 12th fret (the 14)
12b14: bend 12 until you reach the note on the 14 fret
12h14: hammer on to 14...from 12...
14p12: pull-off from 14 to 12
14rb12: release the bend done in 12b14 
\: slide down your guitar


Intro Rhythmn Guitar:
e------------------------------2-2---------2-2----
B-2----2-2-------0-0-0-------2-2-2-------2-2-2----
G-2--2-2-2-2--1--1-1-1----2--2-2-2-2--2--2-2-2-2--
D-2--2-----2--2--2-2-2-2--4--4-4-4-4--4--4-4-4-4--
A-0--0-----0--2--2-----2--4--4-4-4-4--4--4-4-4-4--
E-------------0--0-----0--2--2-2-2-2--2--2-2-2-2--


Intro 1st Solo:
e-----------------------------------------------------
B-12b14----(14)---(14)--(14)----(14)----(14)---(14)\--
G-----------------------------------------------------
D-----------------------------------------------------
A-----------------------------------------------------
E-----------------------------------------------------


Verse: Same Guitar as Intro Rhythmn Guitar


After-Verse 2nd Solo:
e-12h14-14-14--12h14-14-14--12h14-14-14--12h14-14-14--12h14-14-14--
B------------------------------------------------------------------
G------------------------------------------------------------------
D------------------------------------------------------------------
A------------------------------------------------------------------
E------------------------------------------------------------------

e-12h14-14-14--12h14-14-14--12h14-14-14--14p12--14p12--14p12--14p12
B---------------------------------------------14-----14-----14-----
G------------------------------------------------------------------
D------------------------------------------------------------------
A------------------------------------------------------------------
E------------------------------------------------------------------

e---14p12--14p12--14p12--14p12--------------12---------------------
B-14-----14-----14-----14-----14--12b14--------14rb12\-------------
G------------------------------------------------------------------
D------------------------------------------------------------------
A------------------------------------------------------------------
E------------------------------------------------------------------

[ Tab from: http://www.guitartabs.cc/tabs/f/frusciante_john/second_walk_tab.html ]
Bridge 1st Guitar (with A-Wah,OD)
e-----------------------------------------------
B-----------------------------------------------
G-----------------------------------------------
D-----------------------------------------------
A-0-----7-----9----------0-----7-----9----------
E-----------------------------------------------


Bridge 2nd Guitar
e-21--21--21------21------21------21------21--21--21--21--21------
B-22--21--19--17--19--17------17--19--17--19--21--22--21--19--17--
G-------------------------18--------------------------------------
D-----------------------------------------------------------------
A-----------------------------------------------------------------
E-----------------------------------------------------------------


3rd Solo Rhythmn Guitar:
e-----------------------------------------------
B-2-----0-----2----------2-----0-----2----------
G-2-----1-----2----------2-----1-----2----------
D-2-----2-----4----------2-----2-----4----------
A-0-----2-----4----------0-----2-----4----------
E-------0-----2----------------0-----2----------


3rd Solo Guitar:
e-----------------------------------------------------------
B---14rb12---14rb12---14rb12--14rb12--14rb12-14rb12-14rb12--
G-----------------------------------------------------------
D-----------------------------------------------------------
A-----------------------------------------------------------
E-----------------------------------------------------------

e-----------------------------------------------------------
B-14rb12---------12b14\10-----------------------------------
G--------11-------------------11-9-11-----------------------
D-----------------------------------------------------------
A-----------------------------------------------------------
E-----------------------------------------------------------

e-12-----12--------12---12b14rb12---------------------------
B-----14-------14-------------------14----------------------
G-----------------------------------------------------------
D-----------------------------------------------------------
A-----------------------------------------------------------
E-----------------------------------------------------------

e---------------12------------------------------------------
B-----------------------------------------------------------
G-13b14-------------------14rb13--11------------------------
D-----------------------------------------------------------
A-----------------------------------------------------------
E-----------------------------------------------------------


Comments