Frusciante John - My Smile Is A Rifle Chords & Tabs

 

My Smile Is A Rifle Chords & Tabs

Frusciante John Chords & Tabs

Version: 1 Type: Tab 0 ratings
1 star 2 stars 3 stars 4 stars 5 stars
comments

My Smile Is A Rifle Tab

My Smile is a Rifle .tab
John Frusicante - Niandra Lades/Usually Just a T-shirt
Tab: Joel Pickett (joelpickett@hotmail.com)

E||---------------------|----------------------|---------------------|
B||---------------------|----------------------|---------------------|
G||--7------9----7------|--9----7--------------|------5------7----5--|
D||---------------------|---------------9------|---------------------|
A||---------------------|----------------------|---------------------|
E||--8-----------8------|-------8---0---0------|------5-----------5--|


                                                                   
----------------------|---------------------|---------------------|
--------------------8-|---------------------|---------------------|
------7----5----7-----|---9--------7------9-|------7------9----7--|
----------------------|---------------------|---------------------|
----------------------|---------------------|---------------------|
--------------------0-|------------8--------|------8-----------8--|


                                                                          
---------------------5-|---3----5-3---5-3---5-3---5-|---3---0------------|
-----------------------|----------------------------|-------0------------|
-----------------------|----------------------------|-------1------------|
--------7h9------5-----|------5-----5-----5-----5---|-------2------------|
-----------------------|----------------------------|-------2------------|
-----0----0------------|----------------------------|--------------------|


                                                                   
---------------------|----------------------|---------------------|
---------------------|----------------------|---------------------|
--7------9----7------|--9----7--------------|------5------7----5--|
---------------------|---------------9------|---------------------|
---------------------|----------------------|---------------------|
--8-----------8------|-------8---0---0------|------5-----------5--|


                                                                   
----------------------|---------------------|---------------------|
--------------------8-|---------------------|---------------------|
------7----5----7-----|---9--------7------9-|------7------9----7--|
----------------------|---------------------|---------------------|
----------------------|---------------------|---------------------|
--------------------0-|------------8--------|------8-----------8--|


                                                                        
------------------------|-----------------------|----------0-----------|
----------------3-----3-|-------3-----3-----3---|----3-----0-----------|
------------------4-----|---4-----4-----4-----4-|------4---1-----------|
------9------5------5---|-----5-----5-----5-----|--5-----5-2-----------|
------------------------|-----------------------|----------2-----------|
--0---0-----------------|-----------------------|-------------------5--|


                                                                        
------------------------|------------0-----0----|----------------------|
---5-----5--------------|------------5-----5----|----------------------|
-------------------4----|-----------------------|----------------------|
------------------------|--5--------------------|-------5--------------|
------------------------|-----------------------|------------5---------|
-------5------5/3-------|-------5--------5------|--3--------------5----|


                                                                       
-----------------------|------------0-----0----|----------------------|
--5-----5--------------|------------5-----5----|----------------------|
------------------4----|-----------------------|----------------------|
-----------------------|--5--------------------|-------5--------------|
-----------------------|-----------------------|------------5---------|
------5------3---------|-------5--------5------|--3--------------5----|


                                                                       
-----------------------|------------0-----0----|----------------------|
--5-----5--------------|------------5-----5----|----------------------|
------------------4----|-----------------------|----------------------|
-----------------------|--5--------------------|-------5--------------|
-----------------------|-----------------------|------------5---------|
------5------3---------|-------5--------5------|--3--------------5----|


                                                                       
-----------------------|------------0-----0----|----------------------|
--5-----5--------------|------------5-----5----|----------------------|
------------------4----|-----------------------|----------------------|
-----------------------|--5--------------------|-------5--------------|
-----------------------|-----------------------|------------5---------|
------5------3---------|-------5--------5------|--3--------------5----|


                                                                          
--0-0-----0-------0-0----|----0-------0-0-----0--|-------3-3-----3-------|
--5-5-----5-------5-5----|----5-------5-5-----5--|-------3-3-----3-------|
-------------------------|-----------------------|-----------------------|
-------------------------|-----------------------|-----------------------|
-------------------------|-----------------------|-----------------------|
--------5------0-------0-|---------5--------5----|----3--------3------5--|


                                                                       
-----------------------|------------0-----0----|----------------------|
--5-----5--------------|------------5-----5----|----------------------|
------------------4----|-----------------------|----------------------|
-----------------------|--5--------------------|-------5--------------|
-----------------------|-----------------------|------------5---------|
------5------3---------|-------5--------5------|--3--------------5----|


                                                                       
-----------------------|------------0-----0----|----------------------|
--5-----5--------------|------------5-----5----|----------------------|
------------------4----|-----------------------|----------------------|
-----------------------|--5--------------------|-------5--------------|
-----------------------|-----------------------|------------5---------|
------5------3---------|-------5--------5------|--3--------------5----|


                                                                       
-----------------------|------------0-----0----|----------------------|
--5-----5--------------|------------5-----5----|----------------------|
------------------4----|-----------------------|----------------------|
-----------------------|--5--------------------|-------5--------------|
-----------------------|-----------------------|------------5---------|
------5------3---------|-------5--------5------|--3--------------5----|


                                                                          
--0-0-----0-------0-0----|----0-------0-0-----0--|-------3-3-----3-------|
--5-5-----5-------5-5----|----5-------5-5-----5--|-------3-3-----3-------|
-------------------------|-----------------------|-----------------------|
-------------------------|-----------------------|-----------------------|
-------------------------|-----------------------|-----------------------|
--------5------0-------0-|---------5--------5----|----3--------3------5--|


                                                                   
-----------------------|--------------------|---------------------|
----5-----5------------|--------------------|---------------------|
--------------------4--|----4---------------|--7------9----7------|
-----------------------|--------------------|---------------------|
-----------------------|--------------------|---------------------|
--------5------3-------|---------5----------|--8-----------8------|


                                                                               
------------------------|-------------------------|---------------------------|
------------------------|-------------------------|---------------------------|
--9----7----------------|------------------5----7-|------7----7----7------7---|
---------------9-----9--|-----9---9----9----------|---------------------------|
------------------------|-------------------------|---------------------------|
-------8---0---0---0----|--0----0---0------5------|---5----5----5-----0-------|

[ Tab from: http://www.guitartabs.cc/tabs/f/frusciante_john/my_smile_is_a_rifle_tab.html ]
                                                                        
------------------------|---------------------|------------------------|
------------------------|---------------------|------------------------|
---9----9---9----9------|--7------9----7------|--9----7----------------|
------------------------|---------------------|---------------9-----9--|
------------------------|---------------------|------------------------|
------0---0---0-------7/|--8-----------8------|-------8---0---0---0----|


                                                                               
-------------------------|---------------------------|------------------------|
-------------------------|---------------------------|------------------------|
------------------5----7-|------5----7----5------7---|---9----9---9----9------|
-----9---9----9----------|---------------------------|------------------------|
-------------------------|---------------------------|------------------------|
--0----0---0------5------|---5----5----5-----0-------|------0---0---0-------7/|


                                                                         
---------------------|------------------------|-------------------------|
---------------------|------------------------|-------------------------|
--7------9----7------|--9----7----------------|------------------5----7-|
---------------------|---------------9-----9--|-----9---9----9----------|
---------------------|------------------------|-------------------------|
--8-----------8------|-------8---0---0---0----|--0----0---0------5------|


                                                                           
---------------------------|------------------------|---------------------|
---------------------------|------------------------|---------------------|
------5----7----5------7---|---9----9---9----9------|--7------9----7------|
---------------------------|------------------------|---------------------|
---------------------------|------------------------|---------------------|
---5----5----5-----0-------|------0---0---0-------7/|--8-----------8------|


                                                                               
------------------------|--------------------------|--------------------------|
------------------------|-------------------3--3---|----3----3-----3----3-----|
--9----7----------------|-------------------4----4-|------4----4-----4----4---|
---------------9-----9--|-----9---9----9----5------|--5----------5----------5-|
------------------------|--------------------------|--------------------------|
-------8---0---0---0----|--0----0---0--------------|--------------------------|


                                                                     
--0-----------------|-----------------------|------------0-----0----|
--0-----------------|--5-----5--------------|------------5-----5----|
--1-----------------|------------------4----|-----------------------|
--2-----------------|-----------------------|--5--------------------|
--2-----------------|-----------------------|-----------------------|
---------------5----|------5------3---------|-------5--------5------|


                                                                       
----------------------|-----------------------|------------0-----0----|
----------------------|--5-----5--------------|------------5-----5----|
----------------------|------------------4----|-----------------------|
-------5--------------|-----------------------|--5--------------------|
------------5---------|-----------------------|-----------------------|
--3--------------5----|------5------3---------|-------5--------5------|


                                                                       
----------------------|-----------------------|------------0-----0----|
----------------------|--5-----5--------------|------------5-----5----|
----------------------|------------------4----|-----------------------|
-------5--------------|-----------------------|--5--------------------|
------------5---------|-----------------------|-----------------------|
--3--------------5----|------5------3---------|-------5--------5------|


                                                                       
----------------------|-----------------------|------------0-----0----|
----------------------|--5-----5--------------|------------5-----5----|
----------------------|------------------4----|-----------------------|
-------5--------------|-----------------------|--5--------------------|
------------5---------|-----------------------|-----------------------|
--3--------------5----|------5------3---------|-------5--------5------|


                                                                         
----------------------|--0-0-----0-------0-0----|----0-------0-0-----0--|
----------------------|--5-5-----5-------5-5----|----5-------5-5-----5--|
----------------------|-------------------------|-----------------------|
-------5--------------|-------------------------|-----------------------|
------------5---------|-------------------------|-----------------------|
--3--------------5----|--------5------0-------0-|---------5--------5----|


                                                                        
-------3-3-----3-------|-----------------------|------------0-----0----|
-------3-3-----3-------|--5-----5--------------|------------5-----5----|
-----------------------|------------------4----|-----------------------|
-----------------------|-----------------------|--5--------------------|
-----------------------|-----------------------|-----------------------|
----3--------3------5--|------5------3---------|-------5--------5------|


                                                                       
----------------------|-----------------------|------------0-----0----|
----------------------|--5-----5--------------|------------5-----5----|
----------------------|------------------4----|-----------------------|
-------5--------------|-----------------------|--5--------------------|
------------5---------|-----------------------|-----------------------|
--3--------------5----|------5------3---------|-------5--------5------|


                                                                         
----------------------|--0-0-----0-------0-0----|----0-------0-0-----0--|
----------------------|--5-5-----5-------5-5----|----5-------5-5-----5--|
----------------------|-------------------------|-----------------------|
-------5--------------|-------------------------|-----------------------|
------------5---------|-------------------------|-----------------------|
--3--------------5----|--------5------0-------0-|---------5--------5----|


                                                                     
-------3-3-----3-------|-----------------------|--------------------|
-------3-3-----3-------|--5-----5--------------|--------------------|
-----------------------|------------------4----|--------------------|
-----------------------|-----------------------|--5-----------------|
-----------------------|-----------------------|--------------------|
----3--------3------5--|------5------3---------|-------5------------|


                                                                         
---------------------|------------------------|-------------------------|
---------------------|------------------------|-------------------------|
--7------9----7------|--9----7----------------|------------------5----7-|
---------------------|---------------9-----9--|-----9---9----9----------|
---------------------|------------------------|-------------------------|
--8-----------8------|-------8---0---0---0----|--0----0---0------5------|


                                                                           
---------------------------|------------------------|---------------------|
---------------------------|------------------------|---------------------|
------5----7----5------7---|---9----9---9----9------|--7------9----7------|
---------------------------|------------------------|---------------------|
---------------------------|------------------------|---------------------|
---5----5----5-----0-------|------0---0---0-------7/|--8-----------8------|


                                                                               
------------------------|-------------------------|---------------------------|
------------------------|-------------------------|---------------------------|
--9----7----------------|------------------5----7-|------5----7----5------7---|
---------------9-----9--|-----9---9----9----------|---------------------------|
------------------------|-------------------------|---------------------------|
-------8---0---0---0----|--0----0---0------5------|---5----5----5-----0-------|


                                              
--------------------|-----|-----|-----|-----||
--------------------|-----|-----|-----|-----||
---9----------------|-----|-----|-----|-----||
--------------------|-----|-----|-----|-----||
--------------------|-----|-----|-----|-----||
---0----------------|-----|-----|-----|-----||
Comments